Home » S » Skunk Anansie »

Skunk Anansie - Infidelty Tabs

Artists:  A B C D E F G H I J K L M N O P Q R S T U V W X Y Z # 

Infidelty Tabs

(ver. 1) Click to play this song!
Skunk Anansie
Skunk anansie:  Infidelity(only you)


Guitar plays only in chorus and bridge

Chorus:
e|-------------|-------3-----|-------------|----------------|
B|-------------|-----1-------|-------------|--------)-------|
G|-------------|---0---------|-------------|-----2-4--2-4-2-|
D|-2-----------|-------------|-0-----------|---2------------|
A|-------------|-3-----------|-------------|-0--------------|
E|-------------|-------------|-------------|----------------|

Bridge:
e|-------7-------|-------6-------|-------5-------|----------------|
B|---------7---7-|---------6---6-|---------5---5-|--------)-------|
G|-----9-----9---|-----8-----8---|-----7-----7---|-----2-4--2-4-2-|
D|---9-----------|---8-----------|---7-----------|---2------------|
A|-7-------------|-6-------------|-5-------------|-0--------------|
E|---------------|---------------|---------------|----------------|

Then:
e|----7--7--7--|
B|----7--7--7--|
G|-9--9--9--9--|
D|-9-----------|
A|-7-----------|
E|-------------|
            
Submit corrections

↑ Back to top | Tablatures and chords for acoustic guitar and electric guitar, ukulele, drums are parodies/interpretations of the original songs. You may use it for private study, scholarship, research or language learning purposes only