Home » S » Skunk Anansie »

Skunk Anansie - God Loves Only You Tabs

Artists:  A B C D E F G H I J K L M N O P Q R S T U V W X Y Z # 

God Loves Only You Tabs

(ver. 1) Click to play this song!
Skunk Anansie
 Rating:
4.4/5 (18 votes)
                [Intro]

0:00 - 0:05

e|-----------------------------------------|
B|--------9---------8---------9---------8--|
G|------8---------8---------8---------8----|
D|---10--------10--------10--------10------|
A|-8---------8---------8---------8---------|
E|-----------------------------------------|



[Verse]

0:05 - 0:33

e|-----------------------------------------|-------------------------------------|
B|--------9-9-9-9-9-9---------9-9-9-9-9-9--|-------4-4-4-4-4-4--------1-1-1-1-1-1|
G|------8-8-8-8-8-8-8-------8---8-8-8-8-8--|-----6---6-6-6-6-6------0---0-0-0-0-0|
D|---10------------------10----------------|---6------------------2--------------|
A|-8-------------------8-------------------|-4------------------3----------------|
E|-----------------------------------------|-------------------------------------|

e|-----------------------------------------|-------------------------------------|
B|--------9-9-9-9-9-9---------9-9-9-9-9-9--|-------4-4-4-4-4-4--------1-1-1-1-1-1|
G|------8-8-8-8-8-8-8-------8---8-8-8-8-8--|-----6---6-6-6-6-6------0---0-0-0-0-0|
D|---10------------------10----------------|---6------------------2--------------|
A|-8-------------------8-------------------|-4------------------3----------------|
E|-----------------------------------------|-------------------------------------|

e|-----------------------------------------|
B|--------9---------8---------9---------8--|
G|------8---------8---------8---------8----|
D|---10--------10--------10--------10------|
A|-8---------8---------8---------8---------|
E|-----------------------------------------|



[Chorus]

0:34 - 0:56

e|--------------------------------------------------------------|
B|--------------------------------------------------------------|
G|--------------------------------------------------------------|
D|-3-3-x-3--3-3-3--3-3-x-3--3-3-3--2-2-x-2--2------2-2-x-2--2-2-|
A|-3-3-x-3--3-3-3--3-3-x-3--3-3-3--3-3-x-3--3-2-3--3-3-x-3--3-3-|
E|-1-1-x-1--1-0-1--1-1-x-1--1-0-1-------------------------------|

e|--------------------------------------------------------------|
B|---------------------------------------5----------------------|
G|-------------------------------------5------------------------|
D|-3-3-x-3--3------3-3-x-3--3-3-3----5--------------------------|
A|-4-4-x-4--4-3-4--4-4-x-4--4-4-4--7----------------------------|
E|---------------------------------0----------------------------|

e|--------------------------------------------------------------|
B|--------------------------------------------------------------|
G|--------------------------------------------------------------|
D|-3-3-x-3--3-3-3--3-3-x-3--3-3-3--2-2-x-2--2------2-2-x-2--2-2-|
A|-3-3-x-3--3-3-3--3-3-x-3--3-3-3--3-3-x-3--3-2-3--3-3-x-3--3-3-|
E|-1-1-x-1--1-0-1--1-1-x-1--1-0-1-------------------------------|

e|--------------------------------------------------------------|
B|---------------------------------------5----------------------|
G|-------------------------------------5------------------------|
D|-3-3-x-3--3------3-3-x-3--3-3-3----5--------------------------|
A|-4-4-x-4--4-3-4--4-4-x-4--4-4-4--7----------------------------|
E|---------------------------------0----------------------------|

0:57 - 1:09

e|-----------------------------------------|-------------------------------------|
B|-----------------------------------------|-------------------------------------|
G|-----------------------------------------|-------8----------9------------------|
D|-----6---------6---------6---------6-----|---6-8---8--------8-Let Ring---------|
A|--------6---------6---------6---------6--|-6----------------7------------------|
E|-4-4-------4-4-------4-4-------4-4-------|-------------------------------------|



[Second Verse]

1:09 - 1:37

During the second verse there are some melodic overdubs 

e|----------8-8-------------------8-8---------|---------9-9-8-8-6----------8-8-6-6-4-|
B|--------9-----11-11-9---------9-----11-11-9-|-------4------------------1-----------|
G|------8---------------------8---------------|-----6------------------0-------------|
D|---10--------------------10-----------------|---6------------------2---------------|
A|-8---------------------8--------------------|-4------------------3-----------------|
E|--------------------------------------------|--------------------------------------|

20

e|------------------------------------------|---------8-8-6-6-4-------------------|
B|--------9-9-9-8-8------------9-9-9-8-8----|-------4-------------------1---------|
G|------8-----------10-------8-----------10-|-----6-------------------0-----------|
D|---10-------------------10----------------|---6-------------------2-------------|
A|-8--------------------8-------------------|-4-------------------3---------------|
E|-----------------------------------------=|-------------------------------------|

e|-----------------------------------------|
B|--------9---------8---------9---------8--|
G|------8---------8---------8---------8----|
D|---10--------10--------10--------10------|
A|-8---------8---------8---------8---------|
E|-----------------------------------------|



[Second Chorus]

1:38 - 2:00

e|--------------------------------------------------------------|
B|--------------------------------------------------------------|
G|--------------------------------------------------------------|
D|-3-3-x-3--3-3-3--3-3-x-3--3-3-3--2-2-x-2--2------2-2-x-2--2-2-|
A|-3-3-x-3--3-3-3--3-3-x-3--3-3-3--3-3-x-3--3-2-3--3-3-x-3--3-3-|
E|-1-1-x-1--1-0-1--1-1-x-1--1-0-1-------------------------------|

e|--------------------------------------------------------------|
B|---------------------------------------5----------------------|
G|-------------------------------------5------------------------|
D|-3-3-x-3--3------3-3-x-3--3-3-3----5--------------------------|
A|-4-4-x-4--4-3-4--4-4-x-4--4-4-4--7----------------------------|
E|---------------------------------0----------------------------|

e|--------------------------------------------------------------|
B|--------------------------------------------------------------|
G|--------------------------------------------------------------|
D|-3-3-x-3--3-3-3--3-3-x-3--3-3-3--2-2-x-2--2------2-2-x-2--2-2-|
A|-3-3-x-3--3-3-3--3-3-x-3--3-3-3--3-3-x-3--3-2-3--3-3-x-3--3-3-|
E|-1-1-x-1--1-0-1--1-1-x-1--1-0-1-------------------------------|

e|--------------------------------------------------------------|
B|---------------------------------------5----------------------|
G|-------------------------------------5------------------------|
D|-3-3-x-3--3------3-3-x-3--3-3-3----5--------------------------|
A|-4-4-x-4--4-3-4--4-4-x-4--4-4-4--7----------------------------|
E|---------------------------------0----------------------------|

2:00 - 2:11

e|-----------------------------------------|---------------------------------------|
B|-----------------------------------------|---------------------------------------|
G|-----------------------------------------|-------8--8-------8-8-8--9--9--9-9-9-9-|
D|-----6---------6---------6---------6-----|-8-8-8-8--8-8-8-8-8-8-8--8--8--8-8-8-8-|
A|--------6---------6---------6---------6--|-6-6-6-6--6-6-6-6-6-6-6--7--7--7-7-7-7-|
E|-4-4-------4-4-------4-4-------4-4-------|---------------------------------------|



[Third verse]

2:11 - 2:22

e|-----------------------------------------|-------------------------------------|
B|--------9-9-9-9-9-9---------9-9-9-9-9-9--|-------4-4-4-4-4-4--------1-1-1-1-1-1|
G|------8-8-8-8-8-8-8-------8---8-8-8-8-8--|-----6---6-6-6-6-6------0---0-0-0-0-0|
D|---10------------------10----------------|---6------------------2--------------|
A|-8-------------------8-------------------|-4------------------3----------------|
E|-----------------------------------------|-------------------------------------|



[Middle/Break]

2:22 - 2:45

e|-----------------------------------------------------------------|
B|-----------------------------------------------------------------|
G|-3-3-3-3-3-3-3-3-3-3-3-3-3-3-3-3-5-5-5-5-5-5-5-5-5-5-5-5-5-5-5-5-|
D|-3-3-3-3-3-3-3-3-3-3-3-3-3-3-3-3-5-5-5-5-5-5-5-5-5-5-5-5-5-5-5-5-|
A|-1-1-1-1-1-1-1-1-1-1-1-1-1-1-1-1-3-3-3-3-3-3-3-3-3-3-3-3-3-3-3-3-|
E|-----------------------------------------------------------------|

e|-----------------------------------------------------------------|
B|-----------------------------------------------------------------|
G|-6-6-6-6-6-6-6-6-6-6-6-6-6-6-6-6-5-5-5-5-5-5-5-5-5-5-5-5-5-5-5-5-|
D|-6-6-6-6-6-6-6-6-6-6-6-6-6-6-6-6-5-5-5-5-5-5-5-5-5-5-5-5-5-5-5-5-|
A|-4-4-4-4-4-4-4-4-4-4-4-4-4-4-4-4-7-7-7-7-7-7-7-7-7-7-7-7-7-7-7-7-|
E|-----------------------------------------------------------------|

e|-----------------------------------------------------------------|
B|-----------------------------------------------------------------|
G|-3-3-3-3-3-3-3-3-3-3-3-3-3-3-3-3-5-5-5-5-5-5-5-5-5-5-5-5-5-5-5-5-|
D|-3-3-3-3-3-3-3-3-3-3-3-3-3-3-3-3-5-5-5-5-5-5-5-5-5-5-5-5-5-5-5-5-|
A|-1-1-1-1-1-1-1-1-1-1-1-1-1-1-1-1-3-3-3-3-3-3-3-3-3-3-3-3-3-3-3-3-|
E|-----------------------------------------------------------------|

e|-----------------------------------------------------------------|
B|-----------------------------------------------------------------|
G|-6-6-6-6-6-6-6-6-6-6-6-6-6-6-6-6-5-5-5-5-5-5-5-5-5-5-5-5-5-5-5-5-|
D|-6-6-6-6-6-6-6-6-6-6-6-6-6-6-6-6-5-5-5-5-5-5-5-5-5-5-5-5-5-5-5-5-|
A|-4-4-4-4-4-4-4-4-4-4-4-4-4-4-4-4-7-7-7-7-7-7-7-7-7-7-7-7-7-7-7-7-|
E|-----------------------------------------------------------------|



[Final Chorus]

2:45 - 3:08

e|--------------------------------------------------------------|
B|--------------------------------------------------------------|
G|--------------------------------------------------------------|
D|-3-3-x-3--3-3-3--3-3-x-3--3-3-3--2-2-x-2--2------2-2-x-2--2-2-|
A|-3-3-x-3--3-3-3--3-3-x-3--3-3-3--3-3-x-3--3-2-3--3-3-x-3--3-3-|
E|-1-1-x-1--1-0-1--1-1-x-1--1-0-1-------------------------------|

e|--------------------------------------------------------------|
B|---------------------------------------5----------------------|
G|-------------------------------------5------------------------|
D|-3-3-x-3--3------3-3-x-3--3-3-3----5--------------------------|
A|-4-4-x-4--4-3-4--4-4-x-4--4-4-4--7----------------------------|
E|---------------------------------0----------------------------|

e|--------------------------------------------------------------|
B|--------------------------------------------------------------|
G|--------------------------------------------------------------|
D|-3-3-x-3--3-3-3--3-3-x-3--3-3-3--2-2-x-2--2------2-2-x-2--2-2-|
A|-3-3-x-3--3-3-3--3-3-x-3--3-3-3--3-3-x-3--3-2-3--3-3-x-3--3-3-|
E|-1-1-x-1--1-0-1--1-1-x-1--1-0-1-------------------------------|

e|--------------------------------------------------------------|
B|---------------------------------------5----------------------|
G|-------------------------------------5------------------------|
D|-3-3-x-3--3------3-3-x-3--3-3-3----5--------------------------|
A|-4-4-x-4--4-3-4--4-4-x-4--4-4-4--7----------------------------|
E|---------------------------------0----------------------------|

3:08 - 3:19

e|-----------------------------------------|---------------------------------------|
B|-----------------------------------------|---------------------------------------|
G|-----------------------------------------|-------8--8-------8-8-8--9--9--9-9-9-9-|
D|-----6---------6---------6---------6-----|-8-8-8-8--8-8-8-8-8-8-8--8--8--8-8-8-8-|
A|--------6---------6---------6---------6--|-6-6-6-6--6-6-6-6-6-6-6--7--7--7-7-7-7-|
E|-4-4-------4-4-------4-4-------4-4-------|---------------------------------------|



[Outro]

3:19 - end

e|-----------------------------------------|-------------------------------------|
B|--------9-------------------9------------|-------4------------------1----------|
G|------8-------------------8--------------|-----6------------------0------------|
D|---10------------------10----------------|---6------------------2--------------|
A|-8-------------------8-------------------|-4------------------3----------------|
E|-----------------------------------------|-------------------------------------|

e|-----------------------------------------|-------------------------------------|
B|--------9---------8---------9---------8--|-------4------------------1----------|
G|------8---------8---------8---------8----|-----6------------------0------------|
D|---10--------10--------10--------10------|---6------------------2--------------|
A|-8---------8---------8---------8---------|-4------------------3----------------|
E|-----------------------------------------|-------------------------------------|

e|-----------------------------------------|
B|-----------------------------------------|
G|-1---------------------------------------|
D|-----------------------------------------|
A|-----------------------------------------|
E|-1---------------------------------------|

            
Submit corrections

↑ Back to top | Tablatures and chords for acoustic guitar and electric guitar, ukulele, drums are parodies/interpretations of the original songs. You may use it for private study, scholarship, research or language learning purposes only