» » »

Skillet - Saviors Of The World Tabs

Artists:  A B C D E F G H I J K L M N O P Q R S T U V W X Y Z # 

Saviors Of The World Tabs

(ver. 1) Click to play this song!
Skillet
 Rating:
4.1/5 (31 vote)


 Saviors Of The World  lessons Tabs too difficult? Try these video lessons and learn fast
 
                [Intro] Synth at first, then guitar and drums.
e|---------------------------------------------------------------------------|
B|---------------------------------------------------------------------------|
G|---------------------------------------------------------------------------|
D|-5/7--x-x-x--7--x-x-x--7--x-x-x--7\5/7--x-x-x--7--x-x-x--7--x-x-x--7\5/----|
A|-5/7--x-x-x--7--x-x-x--7--x-x-x--7\5/7--x-x-x--7--x-x-x--7--x-x-x--7\5/----|
D|-5/7--x-x-x--7--x-x-x--7--x-x-x--7\5/7--x-x-x--7--x-x-x--7--x-x-x--7\5/----|

e|---------------------------------------------------------------------------|
B|---------------------------------------------------------------------------|
G|---------------------------------------------------------------------------|
D|/7--x-x-x--7--x-x-x--7--x-x-x--7\5/7--x-x-x--7--x-x-x--7--x-x-x--7\5-------|
A|/7--x-x-x--7--x-x-x--7--x-x-x--7\5/7--x-x-x--7--x-x-x--7--x-x-x--7\5-------|
D|/7--x-x-x--7--x-x-x--7--x-x-x--7\5/7--x-x-x--7--x-x-x--7--x-x-x--7\5-------|

[Verse 1]
No guitar during verse and pre-chorus, only drums and synth.

[Chorus]
e|---------------------------------------------------------------------------|
B|---------------------------------------------------------------------------|
G|---------5-5-5-5-----------------------------------------------------------|
D|-7-7-7-7-5-5-5-5-3-3-3-3-5-5-5-5-------------------------------------------| (x4)
A|-7-7-7-7-3-3-3-3-3-3-3-3-5-5-5-5-------------------------------------------|
D|-7-7-7-7---------3-3-3-3-5-5-5-5-------------------------------------------|

[Post-Chorus]
e|---------------------------------------------------------------------------|
B|---------------------------------------------------------------------------|
G|---------------------------------------------------------------------------|
D|-5/7--x-x-x--7--x-x-x--7--x-x-x--7\5/7--x-x-x--7--x-x-x--7--x-x-x--7\5-----|
A|-5/7--x-x-x--7--x-x-x--7--x-x-x--7\5/7--x-x-x--7--x-x-x--7--x-x-x--7\5-----|
D|-5/7--x-x-x--7--x-x-x--7--x-x-x--7\5/7--x-x-x--7--x-x-x--7--x-x-x--7\5-----|

[Verse 2]
No guitar during verse and pre-chorus, only drums and synth.

[Chorus]
e|---------------------------------------------------------------------------|
B|---------------------------------------------------------------------------|
G|---------5-5-5-5-----------------------------------------------------------|
D|-7-7-7-7-5-5-5-5-3-3-3-3-5-5-5-5-------------------------------------------| (x4)
A|-7-7-7-7-3-3-3-3-3-3-3-3-5-5-5-5-------------------------------------------|
D|-7-7-7-7---------3-3-3-3-5-5-5-5-------------------------------------------|

[Bridge]
No guitar during bridge and solo, only drums and synth.

[Chorus]
e|---------------------------------------------------------------------------|
B|---------------------------------------------------------------------------|
G|---------5-5-5-5-----------------------------------------------------------|
D|-7-7-7-7-5-5-5-5-3-3-3-3-5-5-5-5-------------------------------------------| (x4)
A|-7-7-7-7-3-3-3-3-3-3-3-3-5-5-5-5-------------------------------------------|
D|-7-7-7-7---------3-3-3-3-5-5-5-5-------------------------------------------|

[Post-Chorus/Outro]
e|---------------------------------------------------------------------------|
B|---------------------------------------------------------------------------|
G|---------------------------------------------------------------------------|
D|-5/7--x-x-x--7--x-x-x--7--x-x-x--7\5/7--x-x-x--7--x-x-x--7--x-x-x--7-------|
A|-5/7--x-x-x--7--x-x-x--7--x-x-x--7\5/7--x-x-x--7--x-x-x--7--x-x-x--7-------|
D|-5/7--x-x-x--7--x-x-x--7--x-x-x--7\5/7--x-x-x--7--x-x-x--7--x-x-x--7-------|

END
John Cooper's vocals during the intro and post-chorus.
e|--------------------------------------|
B|--------------------------------------|
G|--------------------------------------|
D|-7~-----------5~----------2--5--7--5~-|
A|--------------------------------------|
D|--------------------------------------|
  Whoh          oh          oh oh oh oh            
Submit corrections



        Saviors Of The World  lessons Hard to play? Try these video lessons and learn fast Saviors Of The World  lessons
        
↑ Back to top | Tablatures and chords for acoustic guitar and electric guitar, ukulele, drums are parodies/interpretations of the original songs. You may use it for private study, scholarship, research or language learning purposes only