» » »

Simpsons - Protest Song Tabs

Artists:  A B C D E F G H I J K L M N O P Q R S T U V W X Y Z # 

Protest Song Tabs

(ver. 1) Click to play this song!
Simpsons
 Rating:
4/5 (4 votes)

 Protest Song lessons Tabs too difficult? Try these video lessons and learn fast
 
                protest song homers mom episode


the simpsons






eb:--------2--2-2-2--3-3-3-3--2--2-2-2-2-|
Bb:--------3--3-3-3--3-3-3-3--3--3-3-3-3-|
Gb:-----5--2--2-2-2--2-2-2-2--2--2-2-2-2-|
Db:--5--5--0--0-0-0--0-0-0-0--0----------|
Ab:--5--3--------------------------------|
Eb:--3-----------------------------------|

eb:--------2--2-2-2--3-3-3-3--2--2-2-2-2-|
Bb:--------3--3-3-3--3-3-3-3--3--3-3-3-3-|
Gb:-----5--2--2-2-2--2-2-2-2--2--2-2-2-2-|
Db:--5--5--0--0-0-0--0-0-0-0--0----------|
Ab:--5--3--------------------------------|
Eb:--3-----------------------------------|

eb:-----|
Bb:-----|
Gb:-----|
Db:--5--|
Ab:--5--|
Eb:--3--|
            
Submit corrections


        Protest Song lessons Hard to play? Try these video lessons and learn fast Protest Song lessons
        
↑ Back to top | Tablatures and chords for acoustic guitar and electric guitar, ukulele, drums are parodies/interpretations of the original songs. You may use it for private study, scholarship, research or language learning purposes only