» » »

Simpsons - Marge´S Door Bell Tabs

Artists:  A B C D E F G H I J K L M N O P Q R S T U V W X Y Z # 

Marge´S Door Bell Tabs

(ver. 1) Click to play this song!
Simpsons
 Rating:
4/5 (4 votes)

 Marge´S Door Bell lessons Tabs too difficult? Try these video lessons and learn fast
 
                marGe door Bell


simpsons






e:-----14--21---21-19-21--24----|
B:-16------------------------24-|
G:------------------------------|
D:------------------------------|
A:------------------------------|
E:------------------------------|

e:-----14--21---21-19-21--24----|
B:-16------------------------24-|
G:------------------------------|
D:------------------------------|
A:------------------------------|
E:------------------------------|

e:-----14--21---21-19-21--24----|
B:-16------------------------24-|
G:------------------------------|
D:------------------------------|
A:------------------------------|
E:------------------------------|
            
Submit corrections


        Marge´S Door Bell lessons Hard to play? Try these video lessons and learn fast Marge´S Door Bell lessons
        
↑ Back to top | Tablatures and chords for acoustic guitar and electric guitar, ukulele, drums are parodies/interpretations of the original songs. You may use it for private study, scholarship, research or language learning purposes only