» » »

Simpsons - Homers Tribute Tabs

Artists:  A B C D E F G H I J K L M N O P Q R S T U V W X Y Z # 

Homers Tribute Tabs

(ver. 1) Click to play this song!
Simpsons
 Rating:
4/5 (4 votes)

 Homers Tribute lessons Tabs too difficult? Try these video lessons and learn fast
 
                hommer's triBute 


the simpsons
ned flanders & reverendo alegria
hommer's triBute 





          las mujeres kantaran
e:------3------------------|
B:-----0-------------------|
G:----0--------------------|
D:---0---------------------|
A:--2----------------------|
E:-3-----------------------|

   du  da   du  da   los kaBallos correran.... ned: asi esa mejor
e:--3---0----3---0------|
B:--0---0----0---0---1--|
G:--0---1----0---1---0--|
D:--0---2----0---2---2--|
A:--2---2----2---2---3--|
E:--3---0----3---0------|

    te  apestan   los   pies
e:--3---3---3-------------------|
B:--3---3---3----0-----1--------|
G:--0---0---0----0-----0--------|
D:--0---0---0----2-----2--------|
A:--2---2---2----2-----3--------|
E:--3---3---3----0--------------|
            
Submit corrections


        Homers Tribute lessons Hard to play? Try these video lessons and learn fast Homers Tribute lessons
        
↑ Back to top | Tablatures and chords for acoustic guitar and electric guitar, ukulele, drums are parodies/interpretations of the original songs. You may use it for private study, scholarship, research or language learning purposes only