» » »

Simpsons - Homer Chasing Arthie In His Mansion Tabs

Artists:  A B C D E F G H I J K L M N O P Q R S T U V W X Y Z # 

Homer Chasing Arthie In His Mansion Tabs

(ver. 1) Click to play this song!
Simpsons
 Rating:
4/5 (4 votes)

 Homer Chasing Arthie In His Mansion lessons Tabs too difficult? Try these video lessons and learn fast
 
                homer looking for arthie in his mansion 


simpsons






e:----------------------|
B:----------------------|
G:-9--x-9--x-9--x--9--7-|
D:-9--x-9--x-9--x--9--7-|
A:-7--x-7--x-7--x--7--5-|
E:----------------------|

e:----------------------|
B:----------------------|
G:-9--x-9--x-9--x--9--7-|
D:-9--x-9--x-9--x--9--7-|
A:-7--x-7--x-7--x--7--5-|
E:----------------------|

e:----------------------|
B:----------------------|
G:-9--x-9--x-9--x--9--7-|
D:-9--x-9--x-9--x--9--7-|
A:-7--x-7--x-7--x--7--5-|
E:----------------------|

in this episode marge cant sleep because of homer snoring and for some reason she or her sisters send a email to her old boyfriend, and when homer talks to lenny and karl, he goes nuts and starts looking for marge on arthie's mansion
            
Submit corrections


        Homer Chasing Arthie In His Mansion lessons Hard to play? Try these video lessons and learn fast Homer Chasing Arthie In His Mansion lessons
        
↑ Back to top | Tablatures and chords for acoustic guitar and electric guitar, ukulele, drums are parodies/interpretations of the original songs. You may use it for private study, scholarship, research or language learning purposes only