» » »

Simpsons - Apu Song Libertad Tabs

Artists:  A B C D E F G H I J K L M N O P Q R S T U V W X Y Z # 

Apu Song Libertad Tabs

(ver. 1) Click to play this song!
Simpsons
 Rating:
4/5 (4 votes)

 Apu Song Libertad lessons Tabs too difficult? Try these video lessons and learn fast
 
                apu's song *en libertad*


simpsons





this song appeared on a show when bart was chase by a dog during the beginning and he ends up meeting a movie star that did a lot of western movies and he ends ends up shooting krusty in his show.

capo fret 1

e:-------------------------|
B:-0-----------------------|
G:-1-----------------------|
D:-2-----------------------|
A:-2-----------------------|
E:-0-----------------------|


e:-2--2--2--2--2--2--2--2--2--2--|
B:-3--3--3--3--3--3--3--3--3--3--|
G:-2--2--2--2--2--2--2--2--2--2--|
D:-0--0--0--0--0--0--0--0--0--0--|
A:-------------------------------|
E:-------------------------------|

en libertAD
e:-2--3--2--0-------------|
B:-3--3--3--3-------------|
G:-2--2--2--2-------------|
D:-0--0--0--0-------------|
A:------------------------|
E:------------------------|
            
Submit corrections


        Apu Song Libertad lessons Hard to play? Try these video lessons and learn fast Apu Song Libertad lessons
        
↑ Back to top | Tablatures and chords for acoustic guitar and electric guitar, ukulele, drums are parodies/interpretations of the original songs. You may use it for private study, scholarship, research or language learning purposes only