Home » S » Sidewalk Prophets »

Sidewalk Prophets - Save My Life Tabs

Artists:  A B C D E F G H I J K L M N O P Q R S T U V W X Y Z # 

Save My Life Tabs

(ver. 1) Click to play this song!
Sidewalk Prophets
[Intro]

e|-------------------------5-----|--------------------------9--5---|
B|-------------------------------|---------------------------------|
G|----7--7--7-----7--7--------7--|-----7--7--7-----7--7------------|
D|-------------------------------|---------------------------------|
A|--5----------5--------5--------|--5-----------5--------5---------|
E|-------------------------------|---------------------------------|


OR This way 

(The first way makes it easier to go back to rhythm during 
the chorus, second is easier though)

e|----------------------------------|--------------------------9-------|
B|--------------------------10------|-----------------------------10---|
G|-----7--7--7-----7--7---------7---|-----7--7--7-----7--7-------------|
D|--0-----------0--------0----------|--0-----------0--------0----------|
A|----------------------------------|----------------------------------|
E|----------------------------------|----------------------------------|
            
Submit corrections

↑ Back to top | Tablatures and chords for acoustic guitar and electric guitar, ukulele, drums are parodies/interpretations of the original songs. You may use it for private study, scholarship, research or language learning purposes only