Home » S » Sidewalk Prophets »

Sidewalk Prophets - Chosen Tabs

Artists:  A B C D E F G H I J K L M N O P Q R S T U V W X Y Z # 

Chosen Tabs

(ver. 1) Click to play this song!
Sidewalk Prophets
[Intro] Electric Guitar 2
 
Drums
   (G)
e|-----------3----3------------------3----3------------------3----3-----------------3----3-------------|
B|-----3-------------3--3------3-------------3--3------3-------------3--3-----3---------------3--3-----|
G|--0-----0-----------------0-----0-----------------0-----0----------------0-----0---------------------|
D|-----------------------------------------------------------------------------------------------------|
A|-----------------------------------------------------------------------------------------------------|
E|-----------------------------------------------------------------------------------------------------|
 
==========================================================================================================
 
 
[Verse 1] Electric Guitar 1
 
     (G)
e|-----------------------------------------------------------------------------------------------------|
B|-----------------------------------------------------------------------------------------------------|
G|-----0-----0-----0-----0-----0-----0-----0-----0-----0-----0-----0-----0-----0-----0-----0-----0-----|
D|--5-----5-----5-----5-----5-----5-----5-----5-----5-----5-----5-----5-----5-----5-----5-----5--------|
A|-----------------------------------------------------------------------------------------------------|
E|-----------------------------------------------------------------------------------------------------|
    What do you see when you look in the mirror?                 (A Loser..... a Failure)          Does...
 
 
 
Electric Guitar 2
 
      (G)
e|-----------3----3------------------3----3------------------3----3-----------------3----3-------------|
B|-----3-------------3--3------3-------------3--3------3-------------3--3-----3---------------3--3-----|
G|--0-----0-----------------0-----0-----------------0-----0----------------0-----0---------------------|
D|-----------------------------------------------------------------------------------------------------|
A|-----------------------------------------------------------------------------------------------------|
E|-----------------------------------------------------------------------------------------------------|
 
 
Electric Guitar 1
 
     (C)
e|-----------------------------------------------------------------------------------------------------|
B|-----------------------------------------------------------------------------------------------------|
G|-----------------------------------------------------------------------------------------------------|
D|-----5-----5-----5-----5-----5-----5-----5-----5-----5-----5-----5-----5-----5-----5-----5-----5-----|
A|--3-----3-----3-----3-----3-----3-----3-----3-----3-----3-----3-----3-----3-----3-----3-----3--------|
E|-----------------------------------------------------------------------------------------------------|
  .. every scar determine who you are?
 
 
Electric Guitar 2
 
     (C)
e|-----------3----3------------------3----3------------------3----3-----------------3----3-------------|
B|-----1-------------1--1------1-------------1--1------1-------------1--1-----1---------------1--1-----|
G|--0-----0-----------------0-----0-----------------0-----0----------------0-----0---------------------|
D|-----------------------------------------------------------------------------------------------------|
A|-----------------------------------------------------------------------------------------------------|
E|-----------------------------------------------------------------------------------------------------|
 
 
Electric Guitar 1
 
     (Am)
e|-----------------------------------------------------------------------------------------------------|
B|-----------------------------------------------------------------------------------------------------|
G|-----------------------------------------------------------------------------------------------------|
D|-----2-----2-----2-----2-----2-----2-----2-----2-----5-----5-----5-----5-----5-----5-----5-----5-----|
A|--0-----0-----0-----0-----0-----0-----0-----0-----3-----3-----3-----3-----3-----3-----3-----3--------|
E|-----------------------------------------------------------------------------------------------------|
   Maybe  don't  look,  just  turn  away       If every   day   is   like yesterday 
 
 
 Electric Guitar 2
 
     (Am)                                            (C)
e|-----------3----3------------------3----3------------------3----3-----------------3----3-------------|
B|-----1-------------1--1------1-------------1--1------1-------------1--1-----1---------------1--1-----|
G|--2-----2-----------------2-----2-----------------0-----0----------------0-----0---------------------|
D|-----------------------------------------------------------------------------------------------------|
A|-----------------------------------------------------------------------------------------------------|
E|-----------------------------------------------------------------------------------------------------|
 
 
Electric Guitar 1
 
     (G)                                                                                            N.C.
e|-----------------------------------------------------------------------------------------------------|
B|-----------------------------------------------------------------------------------------------------|
G|-----0-----0-----0-----0-----0-----0-----0-----0-----0-----0-----0-----0-----0-----0-----0-----0-----|
D|--5-----5-----5-----5-----5-----5-----5-----5-----5-----5-----5-----5-----5-----5-----5-----5--------|
A|-----------------------------------------------------------------------------------------------------|
E|-----------------------------------------------------------------------------------------------------|
    winds are gonna change
 
 
Electric Guitar 2
 
      (G)                                                                                          N.C.
e|-----------3----3------------------3----3------------------3----3-----------------3----3-------------|
B|-----3-------------3--3------3-------------3--3------3-------------3--3-----3---------------3--3-----|
G|--0-----0-----------------0-----0-----------------0-----0----------------0-----0---------------------|
D|-----------------------------------------------------------------------------------------------------|
A|-----------------------------------------------------------------------------------------------------|
E|-----------------------------------------------------------------------------------------------------|
 
===========================================================================================================
 
 
[Verse 2] Electric Guitar 1
 
     (G)
e|-----------------------------------------------------------------------------------------------------|
B|-----------------------------------------------------------------------------------------------------|
G|-----0-----0-----0-----0-----0-----0-----0-----0-----0-----0-----0-----0-----0-----0-----0-----0-----|
D|--5-----5-----5-----5-----5-----5-----5-----5-----5-----5-----5-----5-----5-----5-----5-----5--------|
A|-----------------------------------------------------------------------------------------------------|
E|-----------------------------------------------------------------------------------------------------|
    What do you hear when you're all alone?               (In your head....a dead end)
 
 
Electric Guitar 2
 
     (G)
e|-----------3----3------------------3----3------------------3----3-----------------3----3-------------|
B|-----3-------------3--3------3-------------3--3------3-------------3--3-----3---------------3--3-----|
G|--0-----0-----------------0-----0-----------------0-----0----------------0-----0---------------------|
D|-----------------------------------------------------------------------------------------------------|
A|-----------------------------------------------------------------------------------------------------|
E|-----------------------------------------------------------------------------------------------------|
 
 
Electric Guitar 3
 
e|-----------------------------------------------------7----7--7--5----5--5----------------------------|
B|--------------------------------------------8--8--8------------------------8----8--8-----------------|
G|-----------------------------------------------------------------------------------------------------|
D|-----------------------------------------------------------------------------------------------------|
A|-----------------------------------------------------------------------------------------------------|
E|-----------------------------------------------------------------------------------------------------|
 
 
Electric Guitar 1
 
     (C)
e|-----------------------------------------------------------------------------------------------------|
B|-----------------------------------------------------------------------------------------------------|
G|-----------------------------------------------------------------------------------------------------|
D|-----5-----5-----5-----5-----5-----5-----5-----5-----5-----5-----5-----5-----5-----5-----5-----5-----|
A|--3-----3-----3-----3-----3-----3-----3-----3-----3-----3-----3-----3-----3-----3-----3-----3--------|
E|-----------------------------------------------------------------------------------------------------|
   stranded at sea on a stepping stone
 
 
Electric Guitar 2
 
     (C)
e|-----------3----3------------------3----3------------------3----3-----------------3----3-------------|
B|-----1-------------1--1------1-------------1--1------1-------------1--1-----1---------------1--1-----|
G|--0-----0-----------------0-----0-----------------0-----0----------------0-----0---------------------|
D|-----------------------------------------------------------------------------------------------------|
A|-----------------------------------------------------------------------------------------------------|
E|-----------------------------------------------------------------------------------------------------|
 
 
Electric Guitar 3
 
e|-----------------------------------------------------7----7--7--5----5--5----12---12--12-------------|
B|--------------------------------------------8--8--8--------------------------------------------------|
G|-----------------------------------------------------------------------------------------------------|
D|-----------------------------------------------------------------------------------------------------|
A|-----------------------------------------------------------------------------------------------------|
E|-----------------------------------------------------------------------------------------------------|
 
 
 
Electric Guitar 1
 
     (Am)                                          (C)
e|-----------------------------------------------------------------------------------------------------|
B|-----------------------------------------------------------------------------------------------------|
G|-----------------------------------------------------------------------------------------------------|
D|-----2-----2-----2-----2-----2-----2-----2-----2-----5-----5-----5-----5-----5-----5-----5-----5-----|
A|--0-----0-----0-----0-----0-----0-----0-----0-----3-----3-----3-----3-----3-----3-----3-----3--------|
E|-----------------------------------------------------------------------------------------------------|
    There's a cloud inside you, It's welling up  Your   eyes    are   holding   back   a     flood
 
 
 Electric Guitar 2
 
     (Am)                                           (C)
e|-----------3----3------------------3----3------------------3----3-----------------3----3-------------|
B|-----1-------------1--1------1-------------1--1------1-------------1--1-----1---------------1--1-----|
G|--2-----2-----------------2-----2-----------------0-----0----------------0-----0---------------------|
D|-----------------------------------------------------------------------------------------------------|
A|-----------------------------------------------------------------------------------------------------|
E|-----------------------------------------------------------------------------------------------------|
 
 
Electric Guitar 1
 
     (G)
e|-----------------------------------------------------------------------------------------------------|
B|-----------------------------------------------------------------------------------------------------|
G|-----0-----0-----0-----0-----0-----0-----0-----0-----0-----0-----0-----0-----0-----0-----0-----0-----|
D|--5-----5-----5-----5-----5-----5-----5-----5-----5-----5-----5-----5-----5-----5-----5-----5--------|
A|-----------------------------------------------------------------------------------------------------|
E|-----------------------------------------------------------------------------------------------------|
    it's safe to come undone
 
 
Electric Guitar 2
 
     (G)
e|-----------3----3------------------3----3------------------3----3-----------------3----3-------------|
B|-----3-------------3--3------3-------------3--3------3-------------3--3-----3---------------3--3-----|
G|--0-----0-----------------0-----0-----------------0-----0----------------0-----0---------------------|
D|-----------------------------------------------------------------------------------------------------|
A|-----------------------------------------------------------------------------------------------------|
E|-----------------------------------------------------------------------------------------------------|
 
 
Electric Guitar 3
 
e|-----------------------------------------------------7----7--7--5----5--5----------------------------|
B|--------------------------------------------8--8--8------------------------8----8--8-----------------|
G|-----------------------------------------------------------------------------------------------------|
D|-----------------------------------------------------------------------------------------------------|
A|-----------------------------------------------------------------------------------------------------|
E|-----------------------------------------------------------------------------------------------------|
 
 
===========================================================================================================
 
 
[Chorus 1] Arranged for keyboard
 
Electric Guitar 1
 
 
                     Em            Dsus4                     C            G
e|--------------------0---------------3------------------------0--------------3------------------------|
B|-------------------0---------------3------------------------1--------------3-------------------------|
G|------------------0---------------2------------------------0--------------0--------------------------|
D|-----------------2---------------0------------------------2--------------0---------------------------|
A|----------------2----------------------------------------3--------------2----------------------------|
E|---------------0-------------------------------------------------------3-----------------------------|
    You're not worthless, you're precious   You're not left out, you're wanted
 
 
 
                  Em             Dsus4                 C
e|------------------7----------------X---------------------X-------------------------------------------|
B|-----------------8----------------8---------------------5--------------------------------------------|
G|----------------9----------------7---------------------5---------------------------------------------|
D|---------------9----------------7---------------------5----------------------------------------------|
A|--------------7----------------5---------------------3-----------------------------------------------|
E|-----------------------------------------------------------------------------------------------------|
You're not invisable, with your shining soul love has spoken, You are..........
 
 
 
     (G)
e|-----------3----3------------------3----3------------------3----3-----------------3----3-------------|
B|-----3-------------3--3------3-------------3--3------3-------------3--3-----3---------------3--3-----|
G|--0-----0-----------------0-----0-----------------0-----0----------------0-----0---------------------|
D|-----------------------------------------------------------------------------------------------------|
A|-----------------------------------------------------------------------------------------------------|
E|-----------------------------------------------------------------------------------------------------|
... CHOSEN
 
===========================================================================================================
 
 
[Verse 3] Electric Guitar 1
 
     (G)
e|-----------------------------------------------------------------------------------------------------|
B|-----------------------------------------------------------------------------------------------------|
G|-----0-----0-----0-----0-----0-----0-----0-----0-----0-----0-----0-----0-----0-----0-----0-----0-----|
D|--5-----5-----5-----5-----5-----5-----5-----5-----5-----5-----5-----5-----5-----5-----5-----5--------|
A|-----------------------------------------------------------------------------------------------------|
E|-----------------------------------------------------------------------------------------------------|
    You sat on the side and you tried to hide it            (In silence and and quite)
 
 
Electric Guitar 2
 
     (G)
e|-----------3----3------------------3----3------------------3----3-----------------3----3-------------|
B|-----3-------------3--3------3-------------3--3------3-------------3--3-----3---------------3--3-----|
G|--0-----0-----------------0-----0-----------------0-----0----------------0-----0---------------------|
D|-----------------------------------------------------------------------------------------------------|
A|-----------------------------------------------------------------------------------------------------|
E|-----------------------------------------------------------------------------------------------------|
 
 
Electric Guitar 3
 
e|--------------------------------------------------------------10-----------------------10------------|
B|----------------------------------------------------10-h-12---------12------10-h-12---------12-------|
G|-----------------------------------------------------------------------------------------------------|
D|-----------------------------------------------------------------------------------------------------|
A|-----------------------------------------------------------------------------------------------------|
E|-----------------------------------------------------------------------------------------------------|
 
 
Electric Guitar 1
 
     (C)
e|-----------------------------------------------------------------------------------------------------|
B|-----------------------------------------------------------------------------------------------------|
G|-----------------------------------------------------------------------------------------------------|
D|-----5-----5-----5-----5-----5-----5-----5-----5-----5-----5-----5-----5-----5-----5-----5-----5-----|
A|--3-----3-----3-----3-----3-----3-----3-----3-----3-----3-----3-----3-----3-----3-----3-----3--------|
E|-----------------------------------------------------------------------------------------------------|
   But deep in your heart there's a burning fire
 
 
Electric Guitar 2
 
     (C)
e|-----------3----3------------------3----3------------------3----3-----------------3----3-------------|
B|-----1-------------1--1------1-------------1--1------1-------------1--1-----1---------------1--1-----|
G|--0-----0-----------------0-----0-----------------0-----0----------------0-----0---------------------|
D|-----------------------------------------------------------------------------------------------------|
A|-----------------------------------------------------------------------------------------------------|
E|-----------------------------------------------------------------------------------------------------|
 
 
Electric Guitar 3
 
e|--------------------------------------------------------------10-----------------------10------------|
B|----------------------------------------------------10-h-12---------12------10-h-12---------(12)-----|
G|-----------------------------------------------------------------------------------------------------|
D|-----------------------------------------------------------------------------------------------------|
A|-----------------------------------------------------------------------------------------------------|
E|-----------------------------------------------------------------------------------------------------|
 
 
Electric Guitar 1
 
     (Am)                                           (C)
e|-----------------------------------------------------------------------------------------------------|
B|-----------------------------------------------------------------------------------------------------|
G|-----------------------------------------------------------------------------------------------------|
D|-----2-----2-----2-----2-----2-----2-----2-----2-----5-----5-----5-----5-----5-----5-----5-----5-----|
A|--0-----0-----0-----0-----0-----0-----0-----0-----3-----3-----3-----3-----3-----3-----3-----3--------|
E|-----------------------------------------------------------------------------------------------------|
   Whoever told you that you're not strong,      todays the day you're going to prove them wrong
 
 
 
 Electric Guitar 2
 
     (Am)                                            (C)
e|-----------3----3------------------3----3------------------3----3-----------------3----3-------------|
B|-----1-------------1--1------1-------------1--1------1-------------1--1-----1---------------1--1-----|
G|--2-----2-----------------2-----2-----------------0-----0----------------0-----0---------------------|
D|-----------------------------------------------------------------------------------------------------|
A|-----------------------------------------------------------------------------------------------------|
E|-----------------------------------------------------------------------------------------------------|
 
 
Electric Guitar 1
 
     (G)
e|-----------------------------------------------------------------------------------------------------|
B|-----------------------------------------------------------------------------------------------------|
G|-----0-----0-----0-----0-----0-----0-----0-----0-----0-----0-----0-----0-----0-----0-----0-----0-----|
D|--5-----5-----5-----5-----5-----5-----5-----5-----5-----5-----5-----5-----5-----5-----5-----5--------|
A|-----------------------------------------------------------------------------------------------------|
E|-----------------------------------------------------------------------------------------------------|
    Sing your victory song
 
 
 
Electric Guitar 2
 
      (G)
e|-----------3----3------------------3----3------------------3----3-----------------3----3-------------|
B|-----3-------------3--3------3-------------3--3------3-------------3--3-----3---------------3--3-----|
G|--0-----0-----------------0-----0-----------------0-----0----------------0-----0---------------------|
D|-----------------------------------------------------------------------------------------------------|
A|-----------------------------------------------------------------------------------------------------|
E|-----------------------------------------------------------------------------------------------------|
 
 
Electric Guitar 3
 
e|--------------------------------------------------------------10-----------------------10------------|
B|----------------------------------------------------10-h-12---------12------10-h-12---------(12)-----|
G|-----------------------------------------------------------------------------------------------------|
D|-----------------------------------------------------------------------------------------------------|
A|-----------------------------------------------------------------------------------------------------|
E|-----------------------------------------------------------------------------------------------------|
 
===========================================================================================================
 
 
[Chorus 2]
 
Electric Guitar 1
 
              Em                            Dsus4
e|-------------0------------------------------3---------------------------------------------------------|
B|-------------0------------------------------3---------------------------------------------------------|
G|-------------0------------------------------2---------------------------------------------------------|
D|-------------2------------------------------0---------------------------------------------------------|
A|-------------2----------------------------------------------------------------------------------------|
E|-------------0----------------------------------------------------------------------------------------|
  You're not worthless,                you're precious   
 
 
Electric Guitar 2
 
              (Em)                            (D)
e|-------------------------------------------------------------------------------------------------------|
B|-------------------------------------------------------------------------------------------------------|
G|-------------------------------------------------------------------------------------------------------|
D|---------------9---9---9---9---9---9---9---9---7---7---7---7---7---7---7---7---------------------------|
A|-------------7---7---7---7---7---7---7---7---5---5---5---5---5---5---5---5-----------------------------|
E|-------------------------------------------------------------------------------------------------------|
 
 
Electric Guitar 1
 
               C                               G5
e|-------------0-------------------------------3---------------------------------------------------------|
B|-------------1-------------------------------3---------------------------------------------------------|
G|-------------0-------------------------------0---------------------------------------------------------|
D|-------------2-------------------------------0---------------------------------------------------------|
A|-------------3-------------------------------X---------------------------------------------------------|
E|---------------------------------------------3---------------------------------------------------------|
   You're not left out,                 you're wanted
 
 
Electric Guitar 2
 
                (C)                            (G)
e|-------------------------------------------------------------------------------------------------------|
B|-------------------------------------------------------------------------------------------------------|
G|-------------------------------------------------------------------------------------------------------|
D|----------------5---5---5---5---5---5---5---5----------------------------------------------------------|
A|--------------3---3---3---3---3---3---3---3-----5---5---5---5---5---5---5---5--------------------------|
E|----------------------------------------------3---3---3---3---3---3---3---3----------------------------|
 
 
Electric Guitar 1
 
           Em*                            Dsus4*                       C*
e|---------7-------------------------------X---------------------------X----------------------------------|
B|---------8-------------------------------8---------------------------5----------------------------------|
G|---------9-------------------------------7---------------------------5----------------------------------|
D|---------9-------------------------------7---------------------------5----------------------------------|
A|---------7-------------------------------5---------------------------3----------------------------------|
E|--------------------------------------------------------------------------------------------------------|
 You're not invisable,              with ur shining soul     love has spoken,        You are..........
 
 
Electric Guitar 2
 
           (Em)                            (D)                         (C)
e|---------------------------------------------------------------------------------------------------------|
B|---------------------------------------------------------------------------------------------------------|
G|-----------9---9---9---9---9---9---9---9---7---7---7---7---7---7---7---7---5---5---5---5---5---5---5---5-|
D|---------9---9---9---9---9---9---9---9---7---7---7---7---7---7---7---7---5---5---5---5---5---5---5---5---|
A|---------------------------------------------------------------------------------------------------------|
E|---------------------------------------------------------------------------------------------------------|
 
 
Electric Guitar 1
 
                G*
e|--------------3--------------------------------------------------------------------------------------|
B|--------------3--------------------------------------------------------------------------------------|
G|--------------4--------------------------------------------------------------------------------------|
D|--------------5--------------------------------------------------------------------------------------|
A|--------------X--------------------------------------------------------------------------------------|
E|--------------3--------------------------------------------------------------------------------------|
   ...........CHOSEN   Whoo,       Ooooh,           (Ooooh.....)
 
 
Electric Guitar 2
 
                (G)
e|-----------------------------------------------------------------------------------------------------|
B|-----------------------------------------------------------------------------------------------------|
G|-----------------0-----0-----0-----0-----0-----0-----0-----0-----------------------------------------|
D|--------------5-----5-----5-----5-----5-----5-----5-----5--------------------------------------------|
A|-----------------------------------------------------------------------------------------------------|
E|-----------------------------------------------------------------------------------------------------|
 
 
===========================================================================================================
 
 
[Interlude 1] Electric Guitar 1
 
        Em7                          Dsus4                          C**                           G5
e|-------3-----------------------------3-----------------------------3-----------------------------3---|
B|-------3-----------------------------3-----------------------------1-----------------------------3---|
G|-------0-----------------------------2-----------------------------0-----------------------------0---|
D|-------2-----------------------------0-----------------------------2-----------------------------0---|
A|-------2-----------------------------------------------------------3-----------------------------X---|
E|-------0-----------------------------------------------------------------------------------------3---|
  ......Ooooh   Oooohh                Whoo,       Ooooh,       Ooooh......      
 
 
 Electric Guitar 2
 
        Em                            Dsus4                          C*                            G*
e|-------7------------------------------X-----------------------------X-----------------------------3---|
B|-------8------------------------------8-----------------------------5-----------------------------3---|
G|-------9------------------------------7-----------------------------5-----------------------------4---|
D|-------9------------------------------7-----------------------------5-----------------------------5---|
A|-------7------------------------------5-----------------------------3-----------------------------X---|
E|--------------------------------------------------------------------------------------------------3---|
 
 
Electric Guitar 3
 
        (G)
e|-------3-3-3-3-3-3-3-3-3-3-3-3-3-3-3-3-3-3-3-3-3-3-3-3-3-3-3-3-3-3-3-3-3-3-3-3-3-3-3-3-3-3-3-3-3-3-3--|
B|------------------------------------------------------------------------------------------------------|
G|------------------------------------------------------------------------------------------------------|
D|------------------------------------------------------------------------------------------------------|
A|------------------------------------------------------------------------------------------------------|
E|------------------------------------------------------------------------------------------------------|
 
 
==========================================================================================================
 
 
[Break] Electric Guitar 1
 
        Em7                          Dsus4                  C**                           G5
e|-------3-----------------------------3---------------------3-----------------------------3------------|
B|-------3-----------------------------3---------------------1-----------------------------3------------|
G|-------0-----------------------------2---------------------0-----------------------------0------------|
D|-------2-----------------------------0---------------------2-----------------------------0------------|4X
A|-------2---------------------------------------------------3-----------------------------X------------|
E|-------0---------------------------------------------------------------------------------3------------|
     Ur fearless, courageous   In ur weakness he's strong    Hold on 2 ur faith and u'll more than overcome
        This is your identity      Ur call 2b Ur royalty U r CHOSEN               You are CHOSEN
     Ur fearless, courageous   In ur weakness he's strong    Hold on 2 ur faith and u'll more than overcome
        This is who ur made 2b        Come and c ur destiny U r CHOSEN            You are CHO........SEN
 
 Electric Guitar 2
 
        Em*                           Dsus4*                 C*                            G
e|-------7------------------------------X--------------------X-----------------------------3------------|
B|-------8------------------------------8--------------------5-----------------------------3------------|
G|-------9------------------------------7--------------------5-----------------------------4------------|
D|-------9------------------------------7--------------------5-----------------------------5------------|4X
A|-------7------------------------------5--------------------3-----------------------------X------------|
E|-----------------------------------------------------------------------------------------3------------|
 
 
Electric Guitar 3
 
        (G)
e|-------3-3-3-3-3-3-3-3-3-3-3-3-3-3-3-3-3-3-3-3-3-3-3-3-3-3-3-3-3-3-3-3-3-3-3-3-3-3-3-3-3-3-3-3-3-3-3--|
B|------------------------------------------------------------------------------------------------------|
G|------------------------------------------------------------------------------------------------------|
D|------------------------------------------------------------------------------------------------------|4X
A|------------------------------------------------------------------------------------------------------|
E|------------------------------------------------------------------------------------------------------|
 
 
===========================================================================================================
 
 
[Interlude 2 Guitars - Arranged for Keyboards]
 
Electric Guitar 1
 
        Em7                                          Dsus4
e|-------3---------------------------------------------3------------------------------------------------|
B|-------3---------------------------------------------3------------------------------------------------|
G|-------0---------------------------------------------2------------------------------------------------|
D|-------2---------------------------------------------0------------------------------------------------|
A|-------2----------------------------------------------------------------------------------------------|
E|-------0----------------------------------------------------------------------------------------------|
 
 
 
Electric Guitar 2
 
       (Em7)                                           (D)
e|----------------3----3------------------3----3-----------------3----3-----------------3----3----------|
B|----------3-------------3--3------3-------------3--3-----3-------------3--3-----3-------------3--3----|
G|-------0-----0-----------------0-----0----------------2-----2----------------2-----2------------------|
D|------------------------------------------------------------------------------------------------------|
A|------------------------------------------------------------------------------------------------------|
E|------------------------------------------------------------------------------------------------------|
 
        C**                                            G5
e|-------3----------------------------------------------3-----------------------------------------------|
B|-------1----------------------------------------------3-----------------------------------------------|
G|-------0----------------------------------------------0-----------------------------------------------|
D|-------2----------------------------------------------0-----------------------------------------------|
A|-------3----------------------------------------------X-----------------------------------------------|
E|------------------------------------------------------3-----------------------------------------------|
 
 
Electric Guitar 2
 
         (C)                                            (G)
e|----------------3----3------------------3----3-----------------3----3-----------------3----3----------|
B|----------1-------------1--1------1-------------1--1-----3-------------3--3-----3-------------3--3----|
G|-------0-----0-----------------0-----0----------------0-----0----------------0-----0------------------|
D|------------------------------------------------------------------------------------------------------|
A|------------------------------------------------------------------------------------------------------|
E|------------------------------------------------------------------------------------------------------|
 
 
==========================================================================================================
 
[Outro - Keyboard Arranged For Guitar]
 
 
              Em                          G                          C                 G
e|------------12-----------------------------------------------------8-----------------7----------------|
B|------------12--------------------------12-------------------------8-----------------8----------------|
G|------------12--------------------------12-------------------------9-----------------7----------------|
D|----------------------------------------12------------------------------------------------------------|2x
A|------------------------------------------------------------------------------------------------------|
E|------------------------------------------------------------------------------------------------------|
  You're not worthless,                you're precious   You're not left out   You're wanted
  You're irreplaceable         with your shining soul    Love has spoken       You are CHOSEN
            
Submit corrections

↑ Back to top | Tablatures and chords for acoustic guitar and electric guitar, ukulele, drums are parodies/interpretations of the original songs. You may use it for private study, scholarship, research or language learning purposes only