Home » S » Side A »

Side A - Forevemore Tabs

Artists:  A B C D E F G H I J K L M N O P Q R S T U V W X Y Z # 

Forevemore Tabs

(ver. 1) Click to play this song!
Side A
Intro:(PartI)                 (PartII)
e|--------0---------0-----0-  --------0---------0~--|
B|----0-----0-----0-----0---  ----0-----0-----0-0~--|
G|--1---4-----2-4-----4-----  --1---4-----2-4-------|
D|2-------------------------  2---------------------|
A|2-----6-----4-------------  2-----6-----4---------|
E|0-------------------------  0---------------------|

Verse:(Part I)
e|------------------0---------------0~-------------------|
B|----0---------4-7-----0h2-0-------0~-----0--------5-4--|
G|--1---6---4-6-------1-----------2----1-2---2-1---------|
D|2-------6---------------------2----------------4~------|
A|2-----4-----------2---------0------------2-----2~------|
E|0---------4--------------------------------------------|
(Part II)
e|------------------0---------------0~-------------------|
B|----0---------4-7-----0h2-0-------0~-----0--------5-4--|
G|--1---6---4-6-------1-----------2----1-2---2-1---------|
D|2-------6---------------------2----------------4~------|
A|2-----4-----------2---------0------------2-----2~-2-3--|
E|0------------------------------------------------------|

Pre-Chorus2:
e|------4------------------------0-------4-----------------------------------------------|
B|------5-----4-5-4-4-2-4-4------2-------4-----------------------------------------------|
G|----6---------------------4--2-------6-------------------------------------------------|
D|--6-------6------------------2-----6---------------------------------------------------|
A|4-------4-------2-------2----0---4-----------------------------------------------------|
E|---------------------------------------------------------------------------------------|

Chorus1:(Part I)
e|----0-2-4-4---4---0-----0-0-2--4h5-5----4---0-------0-2-4-5-5/7-7-5-4p2-4-5-4-0--|
B|0-2---------7---7-------0------------7----7---0---0------------------------------|
G|----------------------2-2--------------------------------------------------------|
D|--------------------2------------------------------------------------------------|
A|2-----------------0-------2-----------------0-----------------------0------------|
E|--------0---4------------------0-----4----------4---2-------0--------------------|

(Part II)
e|-----------------------------|
B|2---7-5----------------------|
G|--4-------6-4-2-1---1h2-1----|
D|--------6---------4-------2--|
A|------4----------------------|
E|--4---------2----------------|

(Repeat Intro)

Verse:(Part I)
e|---------------------------0---------------0~-------------------|
B|-------------0---------4-7-----0h2-0-------0~-----0--------5-4--|
G|-----------1---6---4-6-------1-----------2----1-2---2-1---------|
D|---------2-------6---------------------2----------------4~------|
A|-2-0-----2-----4-----------2---------0------------2-----2~------|
E|-----4-2-0---------4--------------------------------------------|

(Part II)
e|--0-------------------0-------------0~-------------------|
B|----4-2-----------4-7---4-2-0-------0~-----0--------5-4--|
G|--------4-----4-6-----------------2----1-2---2-1---------|
D|2---------6-6-------------------2----------------4~------|
A|2-------6-------------2-------0------------2-----2~-2-3--|
E|0-------------4------------------------------------------|

Pre-Chorus2:
e|-------4-------------2-------------0-------4--|
B|-------5-----4-5-4-2---4-0---------2-------4--|
G|-----6---------------------4-----2-------4----|
D|---6-------6-------------------2-------6------|
A|-4-------4-------2-------2---0-------6--------|
E|----------------------------------------------|

(Repeat Chorus)

(Repeat Intro PartII Only)

Bridge:
e|3-----------3-2-1-------------0-3-/5-2-------------3-----3-3/5-3-2-0----3-5-3-0-----0--|
B|--1-------1-------3-3-1-0-1---1--------3------------------------------2-------------1--|
G|----0---0------------------------------------0h1-0--------------------------------0-0--|
D|------2---------------------2--------------0------------------------------------2------|
A|3-----------------2-------0--------------2-------------2---------0------------3--------|
E|---------------------------------------3-----------0-2------------------3--------------|

e|----------0-2-4-5-5/7--|
B|1---0-1-3--------------|
G|--2--------------------|
D|-----------------------|
A|--0-------0------------|
E|------------------0----|

(Repeat Intro)

(Repeat Verse PartII Only)

(Repeat Pre-ChorusII)

Chorus3:(Part I)
e|----0-2-4-4---4---0-----0-0-2--4h5-5----4---0-------0-2-4-5-5/7-7-5-4p2-4-5-4-0--|
B|0-2---------7---7-------0------------7----7---0---0------------------------------|
G|----------------------2-2--------------------------------------------------------|
D|--------------------2------------------------------------------------------------|
A|2-----------------0-------2-----------------0-----------------------0------------|
E|--------0---4------------------0-----4----------4---2-------0--------------------|

(Part II)
e|------------0-0-------------0-0---------------------0-2-4-5-5/7--|
B|2---7-5---------4---7-5---------4---7-5-------0-1-3--------------|
G|--4-------2-------4-------2-------4-------6-2--------------------|
D|--------6---------------6---------------6------------------------|
A|------4---------------4---------------4--------------------------|
E|--4-------2-------4-------2-------4---------2-------0------------|

e|------------0-0-------------0-0------------------------------|
B|2---7-5---------4---7-5---------4---7-7----------------------|
G|--4-------2-------4-------2-------4-------6-4-2-1---1h2-1----|
D|--------6---------------6---------------6---------4-------2--|
A|------4---------------4---------------4----------------------|
E|--4-------2-------4-------2-------4---------2----------------|

(Repeat Intro)

e|3/5-4-2-0---2-0--|
B|----------2---0--|
G|--------------1--|
D|--------------2--|
A|--------------2--|
E|--------------0--|            
Submit corrections

↑ Back to top | Tablatures and chords for acoustic guitar and electric guitar, ukulele, drums are parodies/interpretations of the original songs. You may use it for private study, scholarship, research or language learning purposes only