» » »

Sick Puppies - Too Many Words Chords

Artists:  A B C D E F G H I J K L M N O P Q R S T U V W X Y Z # 

Too Many Words Chords

(ver. 1) Click to play this song!
Sick Puppies
 Rating:
4.3/5 (9 votes)

 Too Many Words lessons Tabs too difficult? Try these video lessons and learn fast
 
                [Intro]

e|--------------------------------------------------------------------------|
B|--------------------------------------------------------------------------|
G|----5---5---5---5---4---4---4---4h5---------------------------------------|
D|---5-5-5-5-5-5-5-5-5-5-5-5-5-5-5------------------------------------------|
A|--3---3---0---0---2---2---2---2-------------------------------------------|
E|--------------------------------------------------------------------------|

[Verse]

e|--------------------------------------------------------------------------|
B|--------------------------------------------------------------------------|
G|----5---5---5---5---4---4---4---4h5---------------------------------------| x2
D|---5-5-5-5-5-5-5-5-5-5-5-5-5-5-5------------------------------------------|
A|--3---3---0---0---2---2---2---2-------------------------------------------|
E|--------------------------------------------------------------------------|

e|--------------------------------------------------------------------------|
B|--------------------------------------------------------------------------|
G|---5~---5~--4~---4h5------------------------------------------------------|
D|---5~---5~--5~------5-----------------------------------------------------|
A|---3~---0~--2~------------------------------------------------------------|
E|--------------------------------------------------------------------------|

e|--------------------------------------------------------------------------|
B|--------------------------------------------------------------------------|
G|----5---5---5---5---4---4---4---4h5---------------------------------------|
D|---5-5-5-5-5-5-5-5-5-5-5-5-5-5-5------------------------------------------|
A|--3---3---0---0---2---2---2---2-------------------------------------------|
E|--------------------------------------------------------------------------|


[Chorus]

e|--------------------------------------------------------------------------|
B|--------------------------------------------------------------------------|
G|-----------------------5-----4--------------------------------------------|
D|--3-3--3-3---7-7--7-7--5-----5--------------------------------------------| x2
A|--3-3--3-3---7-7--7-7--5-x8--5-x8-----------------------------------------|
E|--3-3--3-3---7-7--7-7--5-----5--------------------------------------------|

e|--------------------------------------------------------------------------|
B|-6------------------------------------------------------------------------|
G|-5------9------5------4~--------------------------------------------------|
D|-3-x8---7------5------5~--------------------------------------------------|
A|-3------7-x8---5-x8---5~--------------------------------------------------|
E|-3------7------5------5~--------------------------------------------------|

[Post-Chorus]

e|---------------------------------------------------------------------------|
B|---------------------------------------------------------------------------|
G|---------------------------------------------------------------------------|
D|---5~----------7~---------9~-----------------------------------------------|
A|---3~----------7~---------10~----------------------------------------------|
E|---3~----------7~---------9~-----------------------------------------------|

[Verse 2]

e|---------------------------------------------------------------------------|
B|---------------------------------------------------------------------------|
G|----5---5---5---5---4---4---4---4h5----------------------------------------| x2
D|---5-5-5-5-5-5-5-5-5-5-5-5-5-5-5---5---------------------------------------|
A|--3---3---0---0---2---2---2---2--------------------------------------------|
E|---------------------------------------------------------------------------|


e|---------------------------------------------------------------------------|
B|---------------------------------------------------------------------------|
G|-5-5-x-x--5-5-x-x-5-5-x-x-5-5-x-x-4-4-x-x-4-4-x-x-4-4-x-x-4----------------|
D|-5-5-x-x--5-5-x-x-5-5-x-x-5-5-x-x-5-5-x-x-5-5-x-x-5-5-x-x-5----------------|
A|-3-3-x-x--3-3-x-x-0-0-x-x-0-0-x-x-2-2-x-x-2-2-x-x-2-2-x-x-2----------------|
E|---------------------------------------------------------------------------|

[Chorus 2]

e|---------------------------------------------------------------------------|
B|---------------------------------------------------------------------------|
G|-------------------5-------4-----------------------------------------------|
D|----3------7-------5-------5-----------------------------------------------| x2
A|----3-x8---7-x8----5-x8----5-x8--------------------------------------------|
E|----3------7-------5-------5-----------------------------------------------|

e|------------------------------------------------------------------------|
B|-6----------------------------------------------------------------------|
G|-5------9------5------4-------------------------------------------------|
D|-3-x8---7------5------5-------------------------------------------------|
A|-3------7-x8---5-x8---5-x8----------------------------------------------|
E|-3------7------5------5-------------------------------------------------|

[Bridge]

e|--------------------------------------------------------------|
B|--------------------------------------------------------------|
G|-------------------------------------------5nh----------------|
D|---3~--5~--7~--10~--5~--5~---7-7-7-7-7-7----------------------|
A|---3~--5~--7~--10~--3~--5~---7-7-7-7-7-7----------------------|
E|---3~--5~--7~--10~--3~--5~---7-7-7-7-7-7----------------------|
                               * * * * * *

[Solo]

e|---------------------------------------------------------------------------|
B|----12-12-12-12------------------------------------------------------------|
G|----------------9-9-9-9--12-12-12-12---------------------------------------|
D|-------------------------------------10-10-10-10---------------------------|
A|---------------------------------------------------------------------------|
E|---------------------------------------------------------------------------|

e|---------------------------------------------|
B|---12-12-12-12-------------------------------|
G|----------------7-7-7-7-9-9-9-9br------------|
D|---------------------------------------------|
A|---------------------------------------------|
E|---------------------------------------------|

e|-------------------------------------------------------------------------|
B|--12-12-12-12------------------------------------------------------------|
G|--------------9-9-9-9--12-12-12-12---------------------------------------|
D|-----------------------------------10-10-10-10---------------------------|
A|-------------------------------------------------------------------------|
E|-------------------------------------------------------------------------|

e|-------------------------------------------------------------------------|
B|---12-12br---------------------------------------------------------------|
G|---x--x------------------------------------------------------------------| x4
D|---9--9br----------------------------------------------------------------|
A|-------------------------------------------------------------------------|
E|-------------------------------------------------------------------------|

(Rhythm)

e|--------------------------------------------------------------------------|
B|--------------------------------------------------------------------------|
G|--------------------------------------------------------------------------|
D|-------3-----------7----------5-------------------------------------------|
A|-------3-----------7----------5-------------------------------------------|
E|-------3-----------7----------5-------------------------------------------|

[Last Chorus]

e|--------------------------------------------------------------------------|
B|--------------------------------------------------------------------------|
G|--------------------------0-----7-7-7-7----7-7-7-7------------------------|
D|-5-5--5-5---10-9--x-x-x-x---5-5---------5-5-------------------------------|
A|-3-3--3-3---7--7--x-x-x-x---5-5---------5-5--------x-2--------------------|
E|-3-3--3-3---7--7--x-x-x-x---5-5---------5-5--------x-2--------------------|

e|--------------------------------------------------------------------------|
B|--------------------------------------------------------------------------|
G|----------------------------7-7-7-7---------------------------------------|
D|-5-5--5-5---10-9--10-9--5-5---------5----------2--------------------------|
A|-3-3--3-3---7--7--7--7--5-5---------5--x-x--x--2--------------------------|
E|-3-3--3-3---7--7--7--7--5-5---------5--x-x--x--2--------------------------|

e|--------------------------------------------------------------------------|
B|--------------------------------------------------------------------------|
G|-----------------------------7-7-7-7--------------------------------------|
D|-5-5--5-5---10-9--10-9---5-5-----------------------------2----------------|
A|-3-3--3-3---7--7--7--7---5-5---------x---x---x---xxxx--x-2----------------|
E|-3-3--3-3---7--7--7--7---5-5---------x---x---x---xxxx--x-2----------------|


[Outro]

e|--------------------------------------------------------------------------|
B|--------------------------------------------------------------------------|
G|-5-5--5-5-5-5-----9-9-9-9-----7-7-7-7-----7-7-7-7-------------------------| repeat until fades
D|-5-5-----------7-7--------5-5---------5-5--------------2------------------|
A|-3-3-----------7-7--------5-5---------5-5---------x-x--2------------------|
E|-3-3-----------7-7--------5-5---------5-5---------x-x--2------------------|

            
Submit corrections


        Too Many Words lessons Hard to play? Try these video lessons and learn fast Too Many Words lessons
        
↑ Back to top | Tablatures and chords for acoustic guitar and electric guitar, ukulele, drums are parodies/interpretations of the original songs. You may use it for private study, scholarship, research or language learning purposes only