Home » S » Shudder To Think »

Shudder To Think - Day Ditty Tabs

Artists:  A B C D E F G H I J K L M N O P Q R S T U V W X Y Z # 

Day Ditty Tabs

(ver. 1) Click to play this song!
Shudder To Think
                #------------------------------------------------------------------------------##

"Day Ditty"
Shudder to Think

(this is strummed more than shown)
---0---0---0------1---1---1-----------------|
---1-h-3-p-1------0-h-3-p-0-----------------|
---0---0---0------2---2---2-----------------|
---2---2---2------3---3---3-----------------|
---3---3---3--------------------------------|
--------------------------------------------|
Another day........


------------------------------------------|
------------------------------------------|
---------------------0-----0------0-------|
---------------------0-----0------0-------|  (2x)
--2---5---7----------10----5------7-------|
--0---3---5----------8-----3------5-------|
But now...          I'm so tired


Another day, in the garden with you to make you feel alright.
I find myself, oh sweet darling with you, you make me feel alright.
I wanna walk to the garden with you and spin dizzy circles,
I wanna walk to the garden with you and spin dizzy circles,
But now,
I'm so tired.
Can you help me sleep?
or go home
and maybe meet me another day,
            
Submit corrections

↑ Back to top | Tablatures and chords for acoustic guitar and electric guitar, ukulele, drums are parodies/interpretations of the original songs. You may use it for private study, scholarship, research or language learning purposes only