» » »

Shirley Bassey - I Who Have Nothing Chords

Artists:  A B C D E F G H I J K L M N O P Q R S T U V W X Y Z # 

I Who Have Nothing Chords

(ver. 1) Click to play this song!
Shirley Bassey
 Rating:
4.3/5 (23 votes)

 I Who Have Nothing  lessons Tabs too difficult? Try these video lessons and learn fast
 
                [Intro]
       Amadd9    Am               Gadd9     G
e |-----0--0--0--0--0--0-----|-----3--3--3--3--3--3-----| [x2]
B |-----0--0--0--1--1--1-----|-----0--0--0--0--0--0-----|
G |-----5--5--5-/2--2--2-----|-----2--2--2--0--0--0-----|
D |-----7--7--7-/2--2--2-----|-----0--0--0--0--0--0-----|
A |--0--0--0--0--0--0--0-----|--------------------------|
E |-----------------------0--|--3--------------------0--|


[Verse 1]
Amadd9  Am             Gadd9   G  Amadd9  Am           Gadd9     G
  I,    ...I who have nothing,      I     ...I who have no one,
     C                        E7
A - dore you, ...and want you so,
           Am            G                       F
I'm just a no one with nothing to give you, but, oh------...
  (Em)  Amadd9     Am     Amadd9  Am
...I    love you!


[Verse 2]
Amadd9   Am                Gadd9     G
  He,      ...he buys you diamonds,
Amadd9   Am                Gadd9     G
Bright,         sparkling diamonds,
           C                    E7
But be - lieve me, dear, when I say...
             Am                     G                         F
That he can give you the world, but he'll never love you the way...
 (Em) Amadd9     Am     Amadd9   Am
...I   love you!


[Bridge]
        G                               F
He can take you any place he wants, to fancy clubs and restaurants,
    G
But I can only watch you, with...
       F                                 Bm7b5         E7sus4  E7
...my nose pressed up against the window pane---------------------!
                                        |  /  /  /  /  |  /  /  /  /  |


[Verse 3]
Amadd9  Am                 Gadd9   G  Amadd9   Am           Gadd9    G
  I,       ....I who have nothing,      I      ...I who have no one,
       C                     E7
Must watch you ...go dancing by,
                Am               G
Wrapped in the arms of somebody else,
              F             (Em) Amadd9     Am     Gadd9  G
Darling, tis' I---------  ...who loves you!


[Coda- Repeat and end on Amadd9]
       Amadd9    Am               Gadd9     G
e |-----0--0--0--0--0--0-----|-----3--3--3--3--3--3-----|
B |-----0--0--0--1--1--1-----|-----0--0--0--0--0--0-----|
G |-----5--5--5-/2--2--2-----|-----2--2--2--0--0--0-----|
D |-----7--7--7-/2--2--2-----|-----0--0--0--0--0--0-----|
A |--0--0--0--0--0--0--0-----|--------------------------|
E |-----------------------0--|--3--------------------0--|            
Submit corrections


        I Who Have Nothing  lessons Hard to play? Try these video lessons and learn fast I Who Have Nothing  lessons
        
↑ Back to top | Tablatures and chords for acoustic guitar and electric guitar, ukulele, drums are parodies/interpretations of the original songs. You may use it for private study, scholarship, research or language learning purposes only