Home » S » Sheryl Crow »

Sheryl Crow - Weather Channel Tabs

Artists:  A B C D E F G H I J K L M N O P Q R S T U V W X Y Z # 

Weather Channel Tabs
Version #1
Sheryl Crow


Copy URL
INTRO:

 E ----------------------------------------------|
 B ----------------------------------------------|
 G---------1-1-------1-1-------1-1-------1-1-----|
 D ---0-2----------------------------------------|
 A -2-----2-----2---2-----2---2-----2---2-----4--|
 E -----0---------0---------0---------0----------|

 E ----------------------------------------------|
 B ----------------------------------------------|
 G-----1-1-------1-1-------1-1-------1------0----|
 D -0--------------------------------------------|
 A ---2-----2---2-----2---2-----2---2---2h4------|
 E -0---------0---------0---------0--------------|

 E ----------------------------------------------|
 B ----------------------------4-----------------|
 G-----0-0--------0-0---0-------4---4------------|
 D ---0-----0h2-0------------4-----4--------p0---|
 A -3------------------3---2-----------2--0------|
 E ----------------------------------------------|

 E -----------------------------------------------------|
 B -----------------------------------------------------|
 G-----1-1---1-----1--------------1-1---1-----1-1---1---|
 D --------------------0h2p0h2--------------------------|
 A ---2-----2-----2--------------2-----2-----2-----2----|
 E -0-----------0--------------0-----------0------------|


 VERSE 1:

 Part 1

 Play this 8 times, but on the 8th time,
 do not play the last note.

 E --------------|
 B --------------|
 G-----1-1---1---|
 D --------------|
 A ---2-----2----|
 E -0------------|

 Part 2

 E --------------------------------------------|
 B -----1---------1-----------4---------4------|
 G---0---0-----0---0---0-------4---------------|
 D ---------0---------0-----4-----4---4--------|
 A -3---------3-----------2---------2-----2p0--|
 E --------------------------------------------|

 E ----------------------------------------------------|
 B ----------------------------------------------------|
 G-----1-1---1-----1-1---------1-1---1-----1-----------|
 D ---------------------0h2-------------------0h2p0----|
 A ---2-----2-----2-----------2-----2-----2---------2--|
 E -0-----------0-----------0-----------0--------------|


 VERSE 2: Repeat VERSE 1/Part1, then...

 E -------------------------------------------------|
 B -----1-----------1---------4-----------4---------|
 G---0---0---0---0---0---------4---4-------4--------|
 D ---------0-----------0---4-----4-----4-----------|
 A -3-----------3---------2-----------2--------0----|
 E -------------------------------------------------|

 Play VERSE 1/Part 1 three times. On the 3rd time, replace
 the last note with 6th string open.


 CHORUS 1:

 E ----------------------------------------------------|
 B -----2-------------1-----------3-------------3------|
 G-------2---2-----2---2---2-------0---0-----2-----0---|
 D ---2-----2-----2-------2-----0-----0-----0-----0----|
 A -0-----------0--------------------------------------|
 E ---------------------------3-----------2------------|

 E ---------------------------------|
 B -----2-----------1---------------|
 G-------2---2-------2---2----------|
 D ---2-----2-----2-----2---2-2-----|
 A -0-----------0-----------2-2-2---|
 E -------------------------0-0-----|


 VERSE 3: Repeat VERSE 1/Part 1, then...

 E --------------------------------------------|
 B -----1---------1---------4-----------4------|
 G---------0-------0---------4---4-------------|
 D ---0---0-----0-----0---4-----4-----4--------|
 A -3---------3---------2-----------2------0---|
 E --------------------------------------------|


 BRIDGE 1:

 Part 1

 Play VERSE 1/Part 1 three times, then...

 E ------------------------|
 B ------------------------|
 G-----1---------1-1---1---|
 D -----------0------------|
 A ---2---2-4---2-----2----|
 E -0---------0------------|

 Play VERSE 1/Part 1 two times

 Part 2

 E ------------------------------------|
 B ---------------------------1--------|
 G---------------0-0-------0---0---0---|
 D -----0-----0-0-----0h2-0------------|
 A ---2---2-4-3-------------------3----|
 E -0----------------------------------|

 E -------------------------|
 B -----4-------------------|
 G-------4---4-----4--------|
 D ---4-----4-----4-----0---|
 A -2-----------2-----0-----|
 E -------------------------|

 Play VERSE 1/Part 1 four times


 VERSE 4: Repeat VERSE 1/ Part 1, then play this...

 E -------------------------------------------------|
 B -----1-----------1-----------4-----------4-------|
 G-------0---0-------0---0-------4---4--------------|
 D ---0-----0-----0-----0-----4-----4-----4-----0---|
 A -3-----------3-----------2-----------2-----0-----|
 E -------------------------------------------------|

 Play VERSE 1/Part 1 four times. 4th time, do not
 play the last note.


 VERSE 5: Repeat VERSE 1/Part 1, but on the 8th time,
          replace the last note with 4th string open,
          then...

 E -----------------------------------------------|
 B -----1-----------1---------4-----------4-------|
 G-------0---0-------0---------4---4--------------|
 D ---0-----0-----0-----0---4-----4-----4------0--|
 A -3-----------3---------2-----------2------0----|
 E -----------------------------------------------|

 Play VERSE 1/Part 1 three times and add 6th string open.


 CHORUS 2:

 E --------------------------------------------------|
 B -2---------------1-----------3-------------3------|
 G-2---2-----2---2---2---0-------0---0-----2-----0---|
 D -2-2-----2-----------2-----0-----0-----0-----0----|
 A -0-----0-----0------------------------------------|
 E -------------------------3-----------2------------|


 E --------------------------------|
 B -----------------1--------------|
 G-----2-----2-------2-------1-----|
 D ---2-----2-----2-----2---2------|
 A -0-----0-----0---------------2--|
 E -----------------------0--------|


 VERSE 6: Repeat VERSE 1/Part 1, but replace the last
          note with 4th string open, then...

 E -----------------------------------------------|
 B -----1---------1-----------4---------4---------|
 G-------0---------0---0-------4---------4--------|
 D ---0-----0---0-----0-----4-----4---4-------0---|
 A -3---------3-----------2---------2-------0-----|
 E -----------------------------------------------|


 BRIDGE 2: Repeat BRIDGE 1/Part 1, then...

 E ------------------------------------|
 B ---------------1-----------1-----1--|
 G-------------0---0-------0---0-------|
 D -----0-----0-------0h2-0-------0----|
 A ---2---2-4-3------------------------|
 E -0----------------------------------|


 E ------------------------------------|
 B -----4------------------------------|
 G---------4---------1---1-1---1-------|
 D ---4---4-----------2----------------|
 A -2---------2--0-0----2-----2--------|
 E -------------------0----------------|

 Play VERSE 1/Part 1 two times and add 6th string open,
 a slight pause, then 5th string/2nd fret


 VERSE 7: Play VERSE 1/Part 1 seven times. On the 2nd time,
          do not play the last note. Then play this to end

 E --------------------------------------|
 B -----3-----------1-----------1--------|
 G-------1-------0---0---0-------0---0---|
 D -----------0---------0-----0-----0----|
 A ---2-----2---3-----------3------------|
 E -0------------------------------------|

 E ---------------------0--|
 B -----4---------------0--|
 G-------4---4---------1---|
 D ---4-----4-----------2--|
 A -2-----------2---0---2--|
 E ---------------------0--|            
Submit corrections

↑ Back to top | Tablatures and chords for acoustic guitar and electric guitar, ukulele, drums are parodies/interpretations of the original songs. You may use it for private study, scholarship, research or language learning purposes only