Home » S » Sheryl Crow »

Sheryl Crow - Chances Are Tabs

Artists:  A B C D E F G H I J K L M N O P Q R S T U V W X Y Z # 

Chances Are Tabs
Version #1
Sheryl Crow


Copy URL
[Intro]
c|------------------|-----------------|---------------|---------------|
A|-7~~~~-----7~~~---|-6~~~-------6~~~-|-----0h1p0-----|-----0h1p0-----|
G|-------0----------|-------0---------|-2---------0---|-2---------0---| x4
C|----0----------0--|----0----------0-|---0-----------|---0-----------|
F|------------------|-----------------|-0-------------|-0-------------|
C|-0-------0--------|-0-------0-------|-------------0-|-------------0-|
 
[Verse 1]
  I was lost inside a daydream
c|------------------|-----------------|---------------|---------------|
A|-7~~~~-----7~~~---|-6~~~-------6~~~-|-----0h1p0-----|-----0h1p0-----|
G|-------0----------|-------0---------|-2----------0---|-2---------0--|
C|----0----------0--|----0----------0-|---0-----------|---0-----------|
F|------------------|-----------------|-0-------------|-0-------------|
C|-0-------0--------|-0-------0-------|-------------0-|-------------0-|
  Swimming through the saline
c|------------------|-----------------|---------------|---------------|
A|-7~~~~-----7~~~---|-6~~~-------6~~~-|-----0h1p0-----|-----0h1p0-----|
G|-------0----------|-------0---------|-2---------0---|-2---------0---|
C|----0----------0--|----0----------0-|---0-----------|---0-----------|
F|------------------|-----------------|-0-------------|-0-------------|
C|-0-------0--------|-0-------0-------|-------------0-|-------------0-|
   I looked at you and you breathed in
c|------------------|-----------------|---------------|---------------|
A|-7~~~~-----7~~~---|-6~~~-------6~~~|-----0h1p0-----|-----0h1p0-----|
G|-------0----------|-0-----0---------|-2---------0---|-2---------0---|
C|----0----------0--|----0----------0-|---0-----------|---0-----------|
F|------------------|-----------------|-0-------------|-0-------------|
C|-0-------0--------|-0-------0-------|-------------0-|-------------0-|
   Well, that’s the way it’s always been
c|------------------|-----------------|---------------|---------------|
A|-7~~~~-----7~~~---|-6~~~-------6~~~-|-----0h1p0-----|-----0h1p0-----|
G|-------0----------|-0-----0---------|-2---------0---|-2---------0---|
C|----0----------0--|----0----------0-|---0-----------|---0-----------|
F|------------------|-----------------|-0-------------|-0-------------|
C|-0-------0--------|-0-------0-------|-------------0-|-------------0-|
 
[Chorus 1]
  It all comes down to creating time
c|----------3-------|-------5--------|---------------|----------------|
A|-------------1----|----------3-----|-3-----3-------|-3-----3--------|
G|--1---------------|-3--------------|---------0-----|---------0------|
C|------1-----------|----3-----------|----0----------|----0-----------|
F|------------------|----------------|-5-------------|-4--------------|
C|--1---------------|-3--------------|---------------|----------------|
   You don't always have to make it right
c|----------3-------|-------5--------|---------------|----------------|
A|-------------1----|----------3-----|-3-----3-------|-3-----3--------|
G|--1---------------|-3--------------|---------0-----|---------0------|
C|------1-----------|----3-----------|----0----------|----0-----------|
F|------------------|----------------|-5-------------|-4--------------|
C|--1---------------|-3--------------|---------------|----------------|
  We’ll all drive by in our hybrid lives
c|----------3-------|-------5--------|---------------|----------------|
A|-------------1----|----------3-----|-3-----3-------|-3-----3--------|
G|--1---------------|-3--------------|---------0-----|---------0------|
C|------1-----------|----3-----------|----0----------|----0-----------|
F|------------------|----------------|-5-------------|-4--------------|
C|--1---------------|-3--------------|---------------|----------------|
-  Chances are ---------------------------------we’ll make it back
c|-----------------|-----------------|---------------|----------------|
A|-3-----3---------|-3----3----------|--3------3-----|-3----3---------|
G|----------0------|--------0--------|-----------0---|---------0------|
C|----0------------|----0------------|-----0---------|---0------------|
F|-3---------------|-3---------------|--3------------|----------------|
C|------------0----|-----------0-----|-------------0-|-3----------3---|
 
c|------------------|-----------------|---------------|---------------|
A|-7~~~~-----7~~~---|-6~~~-------6~~~-|-----0h1p0-----|-----0h1p0-----|
G|-------0----------|-------0---------|-2---------0---|-2---------0---|
C|----0----------0--|----0----------0-|---0-----------|---0-----------|
F|------------------|-----------------|-0-------------|-0-------------|
C|-0-------0--------|-0-------0-------|-------------0-|-------------0-|
 
[Verse 2]
  I was doing time in the L.A. jail
c|------------------|-----------------|---------------|---------------|
A|-7~~~~-----7~~~---|-6~~~-------6~~~-|-----0h1p0-----|-----0h1p0-----|
G|-------0----------|-------0---------|-2----------0---|-2---------0--|
C|----0----------0--|----0----------0-|---0-----------|---0-----------|
F|------------------|-----------------|-0-------------|-0-------------|
C|-0-------0--------|-0-------0-------|-------------0-|-------------0-|
   My karma was living inside a failure
c|------------------|-----------------|---------------|---------------|
A|-7~~~~-----7~~~---|-6~~~-------6~~~-|-----0h1p0-----|-----0h1p0-----|
G|-------0----------|-------0---------|-2---------0---|-2---------0---|
C|----0----------0--|----0----------0-|---0-----------|---0-----------|
F|------------------|-----------------|-0-------------|-0-------------|
C|-0-------0--------|-0-------0-------|-------------0-|-------------0-|
   No matter how it don’t matter now
c|------------------|-----------------|---------------|---------------|
A|-7~~~~-----7~~~---|-6~~~-------6~~~|-----0h1p0-----|-----0h1p0-----|
G|-------0----------|-0-----0---------|-2---------0---|-2---------0---|
C|----0----------0--|----0----------0-|---0-----------|---0-----------|
F|------------------|-----------------|-0-------------|-0-------------|
C|-0-------0--------|-0-------0-------|-------------0-|-------------0-|
   Rest assured the rest is blurred
c|------------------|-----------------|---------------|---------------|
A|-7~~~~-----7~~~---|-6~~~-------6~~~-|-----0h1p0-----|-----0h1p0-----|
G|-------0----------|-0-----0---------|-2---------0---|-2---------0---|
C|----0----------0--|----0----------0-|---0-----------|---0-----------|
F|------------------|-----------------|-0-------------|-0-------------|
C|-0-------0--------|-0-------0-------|-------------0-|-------------0-|
 
[Chorus 2]
  It all comes down to doing time
c|----------3-------|-------5--------|---------------|----------------|
A|-------------1----|----------3-----|-3-----3-------|-3-----3--------|
G|--1---------------|-3--------------|---------0-----|---------0------|
C|------1-----------|----3-----------|----0----------|----0-----------|
F|------------------|----------------|-5-------------|-4--------------|
C|--1---------------|-3--------------|---------------|----------------|
   We don’t always have to make it a crime
c|----------3-------|-------5--------|---------------|----------------|
A|-------------1----|----------3-----|-3-----3-------|-3-----3--------|
G|--1---------------|-3--------------|---------0-----|---------0------|
C|------1-----------|----3-----------|----0----------|----0-----------|
F|------------------|----------------|-5-------------|-4--------------|
C|--1---------------|-3--------------|---------------|----------------|
   We’ll all drive off in our hybrid lives
c|----------3-------|-------5--------|---------------|----------------|
A|-------------1----|----------3-----|-3-----3-------|-3-----3--------|
G|--1---------------|-3--------------|---------0-----|---------0------|
C|------1-----------|----3-----------|----0----------|----0-----------|
F|------------------|----------------|-5-------------|-4--------------|
C|--1---------------|-3--------------|---------------|----------------|
   Chances are ---------------------------------we’ll make it back
c|-----------------|---------------|---------------|--------------|
A|-3-----3---------|-3----3--------|--3------3-----|-3----3-------|
G|----------0------|--------0------|-----------0---|---------0----|
C|----0------------|----0----------|-----0---------|---0----------|
F|-3---------------|-3-------------|--3------------|--------------|
C|------------0----|-----------0---|-------------0-|-3----------3-|
                                               we’ll make it back
c|------------------|---------------|---------------|-------------|
A|-7~~~~-----7~~~---|-8~~~--10~~~---|-3------3------|-3---3-------|
G|-------0----------|----------0----|----------0----|--------0----| x2
C|----0----------0--|----0-------0--|---0-----------|---0---------|
F|------------------|---------------|-3-------------|-------------|
C|-0-------0--------|-0------0------|-------------0-|-3---------3-|
 
[Solo]                                              huuhmmmm
c|------------------|---------------|---------------|-------------|
A|-7~~~~-----7~~~---|-8~~~--10~~~---|-3------3------|-3---3-------|
G|-------0----------|----------0----|----------0----|--------0----|
C|----0----------0--|----0-------0--|---0-----------|---0---------|
F|------------------|---------------|-3-------------|-------------|
C|-0-------0--------|-0------0------|-------------0-|-3---------3-|
 
c|------------------|-----------------|---------------|---------------|
A|-7~~~~-----7~~~---|-6~~~-------6~~~-|-----0h1p0-----|-----0h1p0-----|
G|-------0----------|-------0---------|-2---------0---|-2---------0---|  x2
C|----0----------0--|----0----------0-|---0-----------|---0-----------|
F|------------------|-----------------|-0-------------|-0-------------|
C|-0-------0--------|-0-------0-------|-------------0-|-------------0-|
 
[Verse 3]
   Terrence McKenna said
c|------------------|-----------------|---------------|---------------|
A|-7~~~~-----7~~~---|-6~~~-------6~~~-|-----0h1p0-----|-----0h1p0-----|
G|-------0----------|-------0---------|-2----------0---|-2---------0--|
C|----0----------0--|----0----------0-|---0-----------|---0-----------|
F|------------------|-----------------|-0-------------|-0-------------|
C|-0-------0--------|-0-------0-------|-------------0-|-------------0-|
   It is better to explore within
c|------------------|-----------------|---------------|---------------|
A|-7~~~~-----7~~~---|-6~~~-------6~~~-|-----0h1p0-----|-----0h1p0-----|
G|-------0----------|-------0---------|-2---------0---|-2---------0---|
C|----0----------0--|----0----------0-|---0-----------|---0-----------|
F|------------------|-----------------|-0-------------|-0-------------|
C|-0-------0--------|-0-------0-------|-------------0-|-------------0-|
   We were apes before we spoke of sin
c|------------------|-----------------|---------------|---------------|
A|-7~~~~-----7~~~---|-6~~~-------6~~~|-----0h1p0-----|-----0h1p0-----|
G|-------0----------|-0-----0---------|-2---------0---|-2---------0---|
C|----0----------0--|----0----------0-|---0-----------|---0-----------|
F|------------------|-----------------|-0-------------|-0-------------|
C|-0-------0--------|-0-------0-------|-------------0-|-------------0-|
   The cosmos sits on the tip of a pin
c|------------------|-----------------|---------------|---------------|
A|-7~~~~-----7~~~---|-6~~~-------6~~~-|-----0h1p0-----|-2---2h3p2-----|
G|-------0----------|-0-----0---------|-2---------0---|----------0----|
C|----0----------0--|----0----------0-|---0-----------|---0-----------|
F|------------------|-----------------|-0-------------|-2-------------|
C|-0-------0--------|-0-------0-------|-------------0-|-------------0-|
 
c|----------------|----------------|--------------|--------------|--------------|
A|-3----3h4p3-----|-5----5h6p5-----|-5---5k6p5----|-5---5h6p5----|-5---5h6p5----|
G|------------0---|------------0---|----------0---|----------0---|----------0---|
C|----0-----------|----0-----------|---0----------|---0----------|---0----------|
F|-3--------------|-5--------------|-5------------|-5------------|-5------------|
C|--------------0-|--------------0-|------------0-|------------0-|------------0-|
 
[Chorus 3]
  It all comes down to creating time
c|----------3-------|-------5--------|---------------|----------------|
A|-------------1----|----------3-----|-3-----3-------|-3-----3--------|
G|--1---------------|-3--------------|---------0-----|---------0------|
C|------1-----------|----3-----------|----0----------|----0-----------|
F|------------------|----------------|-5-------------|-4--------------|
C|--1---------------|-3--------------|---------------|----------------|
   You don't always have to make it all right
c|----------3-------|-------5--------|---------------|----------------|
A|-------------1----|----------3-----|-3-----3-------|-3-----3--------|
G|--1---------------|-3--------------|---------0-----|---------0------|
C|------1-----------|----3-----------|----0----------|----0-----------|
F|------------------|----------------|-5-------------|-4--------------|
C|--1---------------|-3--------------|---------------|----------------|
   We’ll all drive by with our hybrid lives
c|----------3-------|-------5--------|---------------|----------------|
A|-------------1----|----------3-----|-3-----3-------|-3-----3--------|
G|--1---------------|-3--------------|---------0-----|---------0------|
C|------1-----------|----3-----------|----0----------|----0-----------|
F|------------------|----------------|-5-------------|-4--------------|
C|--1---------------|-3--------------|---------------|----------------|
           Chances are                           Chances are
c|-----------------|---------------|---------------|--------------|
A|-3-----3---------|-3----3--------|--3------3-----|-3----3-------|
G|----------0------|--------0------|-----------0---|---------0----|
C|----0------------|----0----------|-----0---------|---0----------|
F|-3---------------|-3-------------|--3------------|--------------|
C|------------0----|-----------0---|-------------0-|-3----------3-|
            Chances are                          we’ll make it back
c|-----------------|---------------|---------------|--------------|
A|-3-----3---------|-3----3--------|--3------3-----|-3----3-------|
G|----------0------|--------0------|-----------0---|---------0----|
C|----0------------|----0----------|-----0---------|---0----------|
F|-3---------------|-3-------------|--3------------|--------------|
C|------------0----|-----------0---|-------------0-|-3----------3-|
                                                we’ll make it back
c|------------------|---------------|---------------|-------------|
A|-7~~~~-----7~~~---|-8~~~--10~~~---|-3------3------|-3---3-------|
G|-------0----------|----------0----|----------0----|--------0----| x3
C|----0----------0--|----0-------0--|---0-----------|---0---------|
F|------------------|---------------|-3-------------|-------------|
C|-0-------0--------|-0------0------|-------------0-|-3---------3-|
 
c|-----------------|
A|-----------------|
G|-----------------|
C|-4---------------|
F|-2---------------|
C|-0---------------|
            
Submit corrections

↑ Back to top | Tablatures and chords for acoustic guitar and electric guitar, ukulele, drums are parodies/interpretations of the original songs. You may use it for private study, scholarship, research or language learning purposes only