» » »

Shawn Mendes - Roses Tabs

Artists:  A B C D E F G H I J K L M N O P Q R S T U V W X Y Z # 

Roses Tabs

(ver. 1) Click to play this song!
Shawn Mendes
 Rating:
4.2/5 (30 votes)


 Roses  lessons Tabs too difficult? Try these video lessons and learn fast
 
                [Intro] 
               Am                         F 
e|--------|--------------------------|--------------------------|
B|--0-----|--1-----1-----1-----0-----|--1-----1-----1-----0-----|
G|-----0--|-----2-----2-----2-----0--|-----2-----2-----2-----0--|
D|-----2--|-----2-----2-----2-----0--|-----3-----3-----3-----0--|
A|--------|--0-----0-----0-----------|--------------------------|
E|--------|--------------------3-----|--1-----1-----1-----3-----|
   
      Am                         F  
e|-------------------------|--------------------------|
B|--1-----1-----1----0-----|--1-----1-----1-----0-----|
G|-----2-----2----2-----0--|-----2-----2-----2-----0--|
D|-----2-----2----2-----0--|-----3-----3-----3-----0--|
A|--0-----0-----0----------|--------------------------|
E|-------------------3-----|--1-----1-----1-----3-----|            
Submit corrections



        Roses  lessons Hard to play? Try these video lessons and learn fast Roses  lessons
        
↑ Back to top | Tablatures and chords for acoustic guitar and electric guitar, ukulele, drums are parodies/interpretations of the original songs. You may use it for private study, scholarship, research or language learning purposes only