» » »

Shawn Mendes - Crazy Tabs

Artists:  A B C D E F G H I J K L M N O P Q R S T U V W X Y Z # 

Crazy Tabs

(ver. 1) Click to play this song!
Shawn Mendes
 Rating:
4.3/5 (20 votes)


 Crazy  lessons Tabs too difficult? Try these video lessons and learn fast
 
                [Verse 1]
   Asus2     E  C#m7   Bsus4   Asus2     E  C#m7   Bsus4
e|--------------------------|--------------4-----1--------|
B|--0--------0--------------|--0--------0--5-----------4--|
G|--2--------1--4--------4--|--2--------1--4--4--------4--|
D|--2--2--x--2--6--6--x--4--|--2--------1--4--4--------4--|
A|--0--0--x--2--4-----x--2--|--0--0--x--2--4--------x--2--|
E|--------x-----------x-----|--0--0--x--2--4--------x--2--|

e|--------0--------------------|
B|--0--------0--5-----5-----4--|
G|--2--------1--4-----------4--|
D|--2--2-----2--6--6-----x--4--| 2x
A|--0--------2--4--------x--2--|
E|-----------------------x-----|



[Chorus]  

   Asus2                     E                        C#m7                     B
e|-----------0-----------|------------0-----------|-----------0-----------|-----------0-----------|
B|-----0--------0-----0--|------0--------0-----0--|-----0--------0-----0--|-----0--------0-----0--|
G|--------2--------2-----|---------0--------0-----|--------4--------4-----|--------4--------4-----|
D|--2--------------------|--2---------------------|--6--------------------|--4--------------------| 3x
A|-----------------------|------------------------|-----------------------|-----------------------|
E|-----------------------|------------------------|-----------------------|-----------------------|

   Asus2                     E                        C#m7                  Bsus4
e|-----------0-----------|------------0-----------|-----------0-----------|--0----|
B|-----0--------0-----0--|------0--------0-----0--|-----0--------0-----0--|--4----|
G|--------2--------2-----|---------0--------0-----|--------4--------4-----|--4----|
D|--2--------------------|--2---------------------|--6--------------------|--4----| 
A|-----------------------|------------------------|-----------------------|--2----|
E|-----------------------|------------------------|-----------------------|-------|

[Verse 2]

e|--------0--------------------|
B|--0--------0--5-----5-----4--|
G|--2--------1--4-----------4--|
D|--2--2-----2--6--6-----x--4--| 4x
A|--0--------2--4--------x--2--|
E|-----------------------x-----|

[Chorus]  

   Asus2                     E                        C#m7                     B
e|-----------0-----------|------------0-----------|-----------0-----------|-----------0-----------|
B|-----0--------0-----0--|------0--------0-----0--|-----0--------0-----0--|-----0--------0-----0--|
G|--------2--------2-----|---------0--------0-----|--------4--------4-----|--------4--------4-----|
D|--2--------------------|--2---------------------|--6--------------------|--4--------------------| 3x
A|-----------------------|------------------------|-----------------------|-----------------------|
E|-----------------------|------------------------|-----------------------|-----------------------|

   Asus2                     E                        C#m7                  Bsus4
e|-----------0-----------|------------0-----------|-----------0-----------|--0----|
B|-----0--------0-----0--|------0--------0-----0--|-----0--------0-----0--|--4----|
G|--------2--------2-----|---------0--------0-----|--------4--------4-----|--4----|
D|--2--------------------|--2---------------------|--6--------------------|--4----| 
A|-----------------------|------------------------|-----------------------|--2----|
E|-----------------------|------------------------|-----------------------|-------|


[Bridge]

   Asus3     E  C#m7     Bsus4
e|--------0--------------------|
B|--0--------0--5-----5-----4--|
G|--2--------1--4-----------4--|
D|--2--2-----2--6--6-----x--4--| 2x
A|--0--------2--4--------x--2--|
E|-----------------------x-----|

[Chorus]  

   Asus2                     E                        C#m7                     B
e|-----------0-----------|------------0-----------|-----------0-----------|-----------0-----------|
B|-----0--------0-----0--|------0--------0-----0--|-----0--------0-----0--|-----0--------0-----0--|
G|--------2--------2-----|---------0--------0-----|--------4--------4-----|--------4--------4-----|
D|--2--------------------|--2---------------------|--6--------------------|--4--------------------| 3x
A|-----------------------|------------------------|-----------------------|-----------------------|
E|-----------------------|------------------------|-----------------------|-----------------------|

   Asus2                     E                        C#m7                  Bsus4
e|-----------0-----------|------------0-----------|-----------0-----------|--0----|
B|-----0--------0-----0--|------0--------0-----0--|-----0--------0-----0--|--4----|
G|--------2--------2-----|---------0--------0-----|--------4--------4-----|--4----|
D|--2--------------------|--2---------------------|--6--------------------|--4----| 
A|-----------------------|------------------------|-----------------------|--2----|
E|-----------------------|------------------------|-----------------------|-------|

[Outro]

    Asus3     E  C#m7     Bsus4   E
e|--------0--------------------|--0----|
B|--0--------0--5-----5-----4--|--0----|
G|--2--------1--4-----------4--|--1----|
D|--2--2-----2--6--6-----x--4--|--2----|
A|--0--------2--4--------x--2--|--2----|
E|-----------------------x-----|-------|            
Submit corrections



        Crazy  lessons Hard to play? Try these video lessons and learn fast Crazy  lessons
        
↑ Back to top | Tablatures and chords for acoustic guitar and electric guitar, ukulele, drums are parodies/interpretations of the original songs. You may use it for private study, scholarship, research or language learning purposes only