Home » S » Sharon Van Etten »

Sharon Van Etten - Taking Chances Tabs

Artists:  A B C D E F G H I J K L M N O P Q R S T U V W X Y Z # 

Taking Chances Tabs

(ver. 1) Click to play this song!
Sharon Van Etten
Tuning: Standard (Capo on 3rd fret)


  Intro
                                                 
e|---------------------------------------------------------------------------|
B|--5-5----------3-------------------5/8-------------------------------------|
G|-4---4-2----0-2-0----------------------------------------------------------|
D|----------------------4-5-5-4-2--------------------------------------------|
A|---------------------------------------------------------------------------|
E|---------------------------------------------------------------------------|

  Verse
        Turn on the charm       Call to response now    
e|--0--------------0--------2---------0--------------------------------------|
B|--0--------------1--------3---------1--------------------------------------|
G|--0--------------2--------4---------0--------------------------------------|
D|--2--------------2--------4---------2--------------------------------------|
A|--2--------------0--------2---------3--------------------------------------|
E|--0--------------0--------x---------x--------------------------------------|

        Sitting on the porch   Looking for a way out
e|--0--------------0------------------------2-----------------2--------------|
B|--0--------------1------------------------3-------------------3----/5------|
G|--0--------------2------------------------4---------------------4----------|
D|--2--------------2------------------------4--------------------------------|
A|--2--------------0------------------------2--------------------------------|
E|--0--------------0------------------------x--------------------------------|

        Touched on me deep     That's why I'm still here
e|--0--------------0--------2---------0-------------------3------------------|
B|--0--------------1--------3---------1--------------------------------------|
G|--0--------------2--------4---------0--------------------4-----------------|
D|--2--------------2--------4---------2---------------------2----------------|
A|--2--------------0--------2---------3--------------------------------------|
E|--0--------------0--------x---------x--------------------------------------|

        Why do we think that we've no plight?
e|--0--------------0---------0--------------2--------------------------------|
B|--0--------------1----------5-2------------3-------------------------------|
G|--0--------------2---------------------------------------------------------|
D|--2--------------2---------------------------------------------------------|
A|--2--------------0---------------------------------------------------------|
E|--0--------------0---------------------------------------------------------|

Chorus

        E------ven      I've taken my chances   
e|-----0-0-0---0-0-0----2-2-2------0-0-0-------------------------------------|
B|-----0-0-0---1-1-1----3-3-3------1-1-1-------------------------------------|
G|-----0-0-0---2-2-2----4-4-4------0-0-0-------------------------------------|
D|-----2-2-2---2-2-2----4-4-4------3-3-3-------------------------------------|
A|-----2-2-2---0-0-0----2-2-2------2-2-2-------------------------------------|
E|-----0-0-0---0-0-0----x-x-x------x-x-x-------------------------------------|

         E-----ven      I've taken my chances (on you and I know)
e|-----0-0-0---0-0-0----2-2-2------0-0-0--------0-0-0------0-0-0-------------|
B|-----0-0-0---1-1-1----3-3-3------1-1-1--------1-1-1------1-1-1-------------|
G|-----0-0-0---2-2-2----4-4-4------0-0-0--------0-0-0------0-0-0-------------|
D|-----2-2-2---2-2-2----4-4-4------3-3-3--------3-3-3------3-3-3-------------|
A|-----2-2-2---0-0-0----2-2-2------2-2-2--------2-2-2------2-2-2-------------|
E|-----0-0-0---0-0-0----x-x-x------x-x-x--------x-x-x------x-x-x-------------|

            
Submit corrections

↑ Back to top | Tablatures and chords for acoustic guitar and electric guitar, ukulele, drums are parodies/interpretations of the original songs. You may use it for private study, scholarship, research or language learning purposes only