Home » S » Shania Twain »

Shania Twain - Whose Bed Have Your Boots Been Under Tabs

Artists:  A B C D E F G H I J K L M N O P Q R S T U V W X Y Z # 

Whose Bed Have Your Boots Been Under Tabs

(ver. 1) Click to play this song!
Shania Twain
[4 bar rest]
G|---------|---------|---------|---------|---------|---------|---------|---------|
D|---------|---------|---6-9-6-|---6-9-6-|-----6---|-----6---|---------|---------|
A|---6-9-6-|---6-9-6-|-7-------|-7-------|-4-4---7-|-4-7---7-|---1-4-1-|---4-7-4-|
E|-7-------|-7-------|---------|---------|---------|---------|-2-------|-5-------|
 
G|---------|---------|---------|
D|---6-9-6-|---------|---------|
A|-7-------|---6-9-6-|---------|
E|---------|-7-------|-7-------|
 
Don't look so lonely...
 
G|---------|---------|---------|---------|---------|---------|---------|---------|
D|---------|---------|---1-4-1-|---1-4-1-|---------|---------|---1-4-1-|---1-4-1-|
A|---1-4-1-|---1-4-1-|-2-------|-2-------|---1-4-1-|---1-4-1-|-2-------|-2-------|
E|-2-------|-2-------|---------|---------|-2-------|-2-------|---------|---------|
 
I know about Lolita...
 
G|---------|---------|---------|---------|---------|---------|---------|---------|
D|---------|---6-9-6-|---------|---------|---------|---------|---1-4-1-|---------|
A|-----6---|-7-------|---6-9-6-|---------|---1-4-1-|---1-4-1-|-2-------|-2-------|
E|-4-7---7-|---------|-7-------|-7-7-6-4-|-2-------|-2-------|---------|---------|
 
Whose bed have your boots been under?...
 
G|---------|---------|---------|---------|---------|---------|---------|---------|
D|---------|---------|---6-9-6-|---6-9-6-|-----6---|-----6---|---------|---6---8-|
A|---------|---------|-7-------|-7-------|-4-4---7-|-4-7---7-|---1-4-1-|-7---9---|
E|---------|---------|---------|---------|---------|---------|-2-------|---------|
 
And whose lips have you been kissin'?...
 
G|---------|---------|---------|---------|---------|---------|---------|---------|
D|---------|---------|---6-9-6-|---6-9-6-|-----6---|-----6---|---------|---------|
A|---6-9-6-|---6-9-6-|-7-------|-7-------|-4-4---7-|-4-7---7-|---1-4-1-|---4-7-4-|
E|-7-------|-7-------|---------|---------|---------|---------|-2-------|-5-------|
 
G|---------|---------|---------|
D|---6-9-6-|---------|---------|
A|-7-------|---6-9-6-|---------|
E|---------|-7-------|-7-------|
 
I heard you've been sneakin'...
 
G|---------|---------|---------|---------|---------|---------|---------|---------|
D|---------|---------|---1-4-1-|---1-4-1-|---------|---------|---1-4-1-|---1-4-1-|
A|---1-4-1-|---1-4-1-|-2-------|-2-------|---1-4-1-|---1-4-1-|-2-------|-2-------|
E|-2-------|-2-------|---------|---------|-2-------|-2-------|---------|---------|
 
And I've seen you walkin'...
 
G|---------|---------|---------|---------|---------|---------|---------|---------|
D|---------|---6-9-6-|---------|---------|---------|---------|---1-4-1-|---------|
A|-----6---|-7-------|---6-9-6-|---------|---1-4-1-|---1-4-1-|-2-------|-2-------|
E|-4-7---7-|---------|-7-------|-7-7-6-4-|-2-------|-2-------|---------|---------|
 
Whose bed have your boots been under?...
 
G|---------|---------|---------|---------|---------|---------|---------|---------|
D|---------|---------|---6-9-6-|---6-9-6-|-----6---|-----6---|---------|---6---8-|
A|---------|---------|-7-------|-7-------|-4-4---7-|-4-7---7-|---1-4-1-|-7---9---|
E|---------|---------|---------|---------|---------|---------|-2-------|---------|
 
And whose lips have you been kissin'?...
 
G|---------|---------|---------|---------|---------|---------|---------|---------|--------|
D|---------|---------|---6-9-6-|---6-9-6-|-----6---|-----6---|---------|---------|--------|
A|---6-9-6-|---6-9-6-|-7-------|-7-------|-4-4---7-|-4-7---7-|---1-4-1-|---------|--------|
E|-7-------|-7-------|---------|---------|---------|---------|-2-------|-5-----5-|-0---7--|
 
Come on boots... (Instrumental)
 
[3 bar rest]
G|------|---------|---------|---------|---------|---------|---------|---------|---------|--------|
D|------|---------|---6-9-6-|---6-9-6-|---------|---------|---6-9-6-|---6-9-6-|---------|--------|
A|------|---4-5-6-|-7-------|-7-------|---6-9-6-|---6-9-6-|-7-------|-7-------|---6-9-6-|--------|
E|4-5-6-|-7-------|---------|---------|-7-------|-7-------|---------|---------|-7-------|-7-7-6-4|
 
So next time you're lonely...
 
G|---------|---------|---------|---------|---------|---------|---------|-------
D|---------|---6-9-6-|---------|---------|---------|---------|---------|-------
A|-----6---|-7-------|---6-9-6-|---------|---1-4-1-|---1-4-1-|-2-------|--4----
E|-4-7---7-|---------|-7-------|-7-7-6-4-|-2-------|-2-------|---------|--------
 
Whose bed have your boots been under?...
 
[8 bar rest]
G|---------|---------|---------|---------|---------|---3---5-|
D|---------|---------|-----8---|-----8---|---------|-4---6---|
A|---1-4-1-|---1-4-1-|-6-6---9-|-6-9---9-|---3-6-3-|---------|
E|-2-------|-2-------|---------|---------|-4-------|---------|
 
And whose lips have you been kissin'?...
 
G|---------|---------|---------|---------|---------|---------|---------|---------|---------|
D|---3-6-3-|---3-6-3-|---------|---------|-----8---|-----8---|---------|---------|---------|
A|-4-------|-4-------|---1-4-1-|---1-4-1-|-6-6---9-|-6-9---9-|---3-6-3-|--2-----2|---------|
E|---------|---------|-2-------|-2-------|---------|---------|-4-------|---------|--2------|
 
 
[Outro]
G|---------|---------|
D|---------|---------|
A|---------|--4------|
E|---------|1--------|
            
Submit corrections

↑ Back to top | Tablatures and chords for acoustic guitar and electric guitar, ukulele, drums are parodies/interpretations of the original songs. You may use it for private study, scholarship, research or language learning purposes only