Home » S » Shania Twain »

Shania Twain - She's Not Just A Pretty Face Tabs

Artists:  A B C D E F G H I J K L M N O P Q R S T U V W X Y Z # 

She's Not Just A Pretty Face Tabs

(ver. 1) Click to play this song!
Shania Twain
 Rating:
4/5 (4 votes)
                intro: (transposed for guitar)


19--17p16--14-12-------12-(14h16=4X)-16p14-\12-
-----------------12h14-----------------------
---------------------------------------------
---------------------------------------------
---------------------------------------------
---------------------------------------------


---------------------------------------------
---------------------------------------------
4-/16-------------------------------------
---------------------------------------------
----------------------------------------------
---------------------------------------------

verse:

--------------------------5p4---------------
-----------------5----5---5---5-------------
4---4---4--------4h6--4h6-----6-------------
4h6-4h6-4h6---------------------------------
--------------------------------------------
---------------------------------------------


main bass lead for guitar:

--------------------------------------------
-------------------------------------------
-------------------------------------------
2-4-----2-4-----2-4-----2-4----------------
----2-2-----0-0-----2-4-----0-0------------
------------------------------------------




guitar solo:

-------------------------4/12------------
--4-5-4-------------4-5-4------------------
-4---4--/16--------4----------------------
4-----------------4-------------------------
------------------------------------------
------------------------------------------




7-7-7-7-7--------------------------------
7-9-7-7-9---7-9b^v7-9--7-----------------
-----------------------------------------
------------------------------------------
------------------------------------------
-----------------------------------------


------7--5-------7b^v-5-4---------------
----5----5h7(x4)----------5-------------
4h6----------------------------------
--------------------------------------
-------------------------------------
------------------------------------


----------------------------------7-----
------------------------7-9-7-7h9----7--
-----------------6-8-9-----------------
--------4-6-7--9-----------------------
5p4-6-7---------------------------------
----------------------------------------


0--0--0----0--0---0---0--0--0-0--0-0-0---
12-12-12\-10-10---10\9---9--9\7--7-7-7--
----------------------------------------
----------------------------------------
----------------------------------------
----------------------------------------


0--0--0--0---0--0--0----0--0---0-0---0--0--0---
14-14-14\12--12-12-12---17-17-17\16--16-16-16-
----------------------------------------------
----------------------------------------------
-----------------------------------------------
----------------------------------------------



            
Submit corrections

↑ Back to top | Tablatures and chords for acoustic guitar and electric guitar, ukulele, drums are parodies/interpretations of the original songs. You may use it for private study, scholarship, research or language learning purposes only