Home » S » Sham 69 »

Sham 69 - Ulster Tabs

Artists:  A B C D E F G H I J K L M N O P Q R S T U V W X Y Z # 

Ulster Tabs

(ver. 1) Click to play this song!
Sham 69
Sham 69
Tell Us The truth

Verse/Intro(progression)
e|----5---8-----5---7----5---8----5---5---|
B|----5---8-----7---9----5---8----7---5---|
G|----6---9-----7---9----6---9----7---6---|
D|----7---10----7---9----7---10---7---7---|
A|----7---10----5---7----7---10---5---7---|
E|----5---8--------------5---8--------5---|

Chorus/Outro
e|----3---1---2----|
B|----3---1---2----|
G|----4---2---3----|
D|----5---3---4----|
A|----5---3---4----|
E|----3---1---2----|

Solo
e|----------------------------------5------5--7--5---------------------|
B|----------------------------------5---8----------8--5--8--5--8--5r---|
G|------5---7--5----------5--7--9r-------------------------------------|
D|---7----7-------7--5--7----------------------------------------------|
A|---------------------------------------------------------------------|
E|---------------------------------------------------------------------|
thats all folks! rate this!
            
Submit corrections

↑ Back to top | Tablatures and chords for acoustic guitar and electric guitar, ukulele, drums are parodies/interpretations of the original songs. You may use it for private study, scholarship, research or language learning purposes only