Home » S » Sham 69 »

Sham 69 - The Cockney Kids Are Innocent Tabs

Artists:  A B C D E F G H I J K L M N O P Q R S T U V W X Y Z # 

The Cockney Kids Are Innocent Tabs

(ver. 1) Click to play this song!
Sham 69

I don't know the solo, but I know it's played over the verse chords.

[Intro + Verses]
e|-----------------------------------------------------------------------------|
B|-----------------------------------------------------------------------------|
G|-----------------------------------------------------------------------------|
D|--7-7-7---3-3-3---5-5-5-5-5-5-5---7-7-7---3-3-3---5-5-5-5-5-5-5--------------|
A|--7-7-7---3-3-3---5-5-5-5-5-5-5---7-7-7---3-3-3---5-5-5-5-5-5-5--------------|
E|--5-5-5---1-1-1---3-3-3-3-3-3-3---5-5-5---1-1-1---3-3-3-3-3-3-3--------------|

e|-----------------------------------------------------------------------------|
B|-----------------------------------------------------------------------------|
G|-----------------------------------------------------------------------------|
D|--7-7-7---3-3-3---5-5-5-5-5-5-5---7-7-7---3-3-3---5-5-5-5-5-5-5--------------|
A|--7-7-7---3-3-3---5-5-5-5-5-5-5---7-7-7---3-3-3---5-5-5-5-5-5-5--------------|
E|--5-5-5---1-1-1---3-3-3-3-3-3-3---5-5-5---1-1-1---3-3-3-3-3-3-3--------------|

[Chorus]
e|-----------------------------------------------------------------------------|
B|-----------------------------------------------------------------------------|
G|--5--5--5---3--3--3---7--5-7-5-7---5--5--5---3--3--3---7--5-7-5-7------------|
D|--5--5--5---3--3--3---7--5-7-5-7---5--5--5---3--3--3---7--5-7-5-7------------|
A|--3--3--3---1--1--1---5--3-5-3-5---3--3--3---1--1--1---5--3-5-3-5------------|
E|-----------------------------------------------------------------------------|

e|-----------------------------------------------------------------------------|
B|-----------------------------------------------------------------------------|
G|--5--5--5---3--3--3---7--5-7-5-7--7-7-7-7-7-7-7-7----------------------------|
D|--5--5--5---3--3--3---7--5-7-5-7--7-7-7-7-7-7-7-7----------------------------|
A|--3--3--3---1--1--1---5--3-5-3-5--5-5-5-5-5-5-5-5----------------------------|
E|-----------------------------------------------------------------------------|
            
Submit corrections

↑ Back to top | Tablatures and chords for acoustic guitar and electric guitar, ukulele, drums are parodies/interpretations of the original songs. You may use it for private study, scholarship, research or language learning purposes only