Home » S » Sham 69 »

Sham 69 - Its Never Too Late Bass

Artists:  A B C D E F G H I J K L M N O P Q R S T U V W X Y Z # 

Its Never Too Late Bass

(ver. 1) Click to play this song!
Sham 69
Intro x2
G|------------|
D|------------|
A|------5-----|
E|-0-------5--|

2nd Intro x1
G|---------------------------------|
D|---------------------------------|
A|-2-2-2-2-2-2-2-2-2-2-2-2-2-2-2-2-|
E|---------------------------------|

Verse

   "So many people inside......"
G|-----------------|
D|-----------------| x2
A|-0-0-3-3-2-2-0-0-|
E|-----------------|

    then....

   "All my life I wanted..."
G|-----------------|
D|-----------------| x2
A|--------2--0--0--|
E|-3-3-3-----------|

Transition to Chorus
G|------------------|
D|------------------| x1
A|-5-5/8-8--8\7-7-0-|
E|------------------|

Chorus x2
G|-----------------------|
D|-----------------------|
A|-------7-5---------5---|
E|-7-7-7-------5-5-5---5-|

Play the verse riff ovee the guitar solo.

Bridge
G|-----------------|
D|-----------------| x4
A|-3-3-2-2-1-1-0-0-|
E|-----------------|

Outro to last Chorus
           6/4
G|-----------------------|
D|-----------------------|
A|-0-0-0-0-0-0-0-0-0-0-0-|
E|-----------------------|            
Submit corrections

↑ Back to top | Tablatures and chords for acoustic guitar and electric guitar, ukulele, drums are parodies/interpretations of the original songs. You may use it for private study, scholarship, research or language learning purposes only