» » »

Sham 69 - Hey Little Rich Boy Tabs

Artists:  A B C D E F G H I J K L M N O P Q R S T U V W X Y Z # 

Hey Little Rich Boy Tabs

(ver. 1) Click to play this song!
Sham 69
 Rating:
4/5 (4 votes)

 Hey Little Rich Boy lessons Tabs too difficult? Try these video lessons and learn fast
 
                -------------------------------------------------------------------------
-------------------------------------------------------------------------

Tuning: Standart


Intro
e|-----------------------------------------------------------------------|
B|------7---7----------9---------------7---7--------9999-----------------|
G|------7----7---------9-9-------------7----7-------9999-----------------|
D|------9--9--9--------9--9-(let_ring)-9--9--9------9999-----------------|
A|------9-9------------7---------------9-9----------7777-----------------|
E|------7------------------------------7---------------------------------|


Riff #1 (hey little rich boy...)
       hey   little  rich boy +++ +++
e|-------------5-------333----333-555------------------------------------|
B|------7------5-------333----333-555------------------------------------|
G|------7------6-------444----444-666------------------------------------|
D|------7------7-------555----555-777------------------------------------|
A|------5------7-------555----555-777------------------------------------|
E|-------------5-------333----333-555------------------------------------| x4
+++ +++ - these 6 are played fast


Riff #2 (i dont need a flash car...)
e|-------------------------------|-------------5--55555555-55555555-----|
B|-------------------------------|-------------5--55555555-55555555-----|
G|-----------9-9-------7-7-------|---------9---6--66666666-66666666-----|
D|------9-9--9-9--7-7--7-7-------|-----9---9---7--77777777-77777777-----|
A|------9-9--7-7--7-7--5-5-------|-----9---7---7------------------------|
E|------7-7-------5-5------------|-----7-------5------------------------|

Then riff #1,
then riff #2,
then intro
then solo


Solo
e|-------------------------------|------------------7h10~----------------|
B|-------------------------------|-------------7h10----------------------|
G|----------------------7~-------|---------7h9---------------------------|
D|------------------7--9---------|-----7h9-------------------------------|
A|-------------7--9--------------|---------------------------------------|
E|------5h7--10------------------|---------------------------------------|

~ - little vibrato
h - hammer-on

Then riff #2,
then riff #1,
then riff #2,
ending is simillary as intro.
            
Submit corrections


        Hey Little Rich Boy lessons Hard to play? Try these video lessons and learn fast Hey Little Rich Boy lessons
        
↑ Back to top | Tablatures and chords for acoustic guitar and electric guitar, ukulele, drums are parodies/interpretations of the original songs. You may use it for private study, scholarship, research or language learning purposes only