» » »

Sham 69 - Family Life Tabs

Artists:  A B C D E F G H I J K L M N O P Q R S T U V W X Y Z # 

Family Life Tabs

(ver. 1) Click to play this song!
Sham 69
 Rating:
4/5 (4 votes)

 Family Life lessons Tabs too difficult? Try these video lessons and learn fast
 
                
Intro:
e|----------------------------------------------------------------|
B|----------------------------------------------------------------|
G|--------6-6-6--7-7-7--9--9-9-9---------6-6-6--7-7-7--9--9-9-9---|
D|-7-7-7--6-6-6--7-7-7--9--9-9-9--7-7-7--6-6-6--7-7-7--9--9-9-9---|
A|-7-7-7--4-4-4--5-5-5--7--7-7-7--7-7-7--4-4-4--5-5-5--7--7-7-7---|
E|-5-5-5--------------------------5-5-5---------------------------|

Verse:
e|---------------------------------------------------------------|
B|---------------------------------------------------------------|
G|--------6-6-6--7-7-7--9--9-9-9---------6-6-6--7-7-7--9--9-9-9--|
D|-7-7-7--6-6-6--7-7-7--9--9-9-9--7-7-7--6-6-6--7-7-7--9--9-9-9--|
A|-7-7-7--4-4-4--5-5-5--7--7-7-7--7-7-7--4-4-4--5-5-5--7--7-7-7--|
E|-5-5-5--------------------------5-5-5--------------------------|

e|-----------------------------------|
B|-----------------------------------|
G|-7-7-7-7-7-7-7-7-------------------|
D|-7-7-7-7-7-7-7-7--9-9-9-9-9-9-9-9--|
A|-5-5-5-5-5-5-5-5--9-9-9-9-9-9-9-9--|
E|------------------7-7-7-7-7-7-7-7--|

Chorus:
e|-----------------------------------------------------------|
B|-----------------------------------------------------------|
G|-6-6-6------------------------6-6-6------------------------|
D|-6-6-6--7-7--9-9-9-9-9-9-9-9--6-6-6--7-7--9-9-9-9-9-9-9-9--|
A|-4-4-4--7-7--9-9-9-9-9-9-9-9--4-4-4--7-7--9-9-9-9-9-9-9-9--|
E|--------5-5--7-7-7-7-7-7-7-7---------5-5--7-7-7-7-7-7-7-7--|

e|----------------------------------------------|
B|----------------------------------------------|
G|-6-6-6----------------------------------------|
D|-6-6-6--7-7--9-9-9-9-9-9-9-9-9-9-9-9-9-9-9-9--|
A|-4-4-4--7-7--9-9-9-9-9-9-9-9-9-9-9-9-9-9-9-9--|
E|--------5-5--7-7-7-7-7-7-7-7-7-7-7-7-7-7-7-7--|

Bridge:
   F#            G             E             F#
e|-2--2-2-2-2-2--3--3-3-3-3-3--0--0-0-0-0-0--2--2-2-2-2-2--|
B|-2--2-2-2-2-2--3--3-3-3-3-3--0--0-0-0-0-0--2--2-2-2-2-2--|
G|-3--3-3-3-3-3--4--4-4-4-4-4--1--1-1-1-1-1--3--3-3-3-3-3--|
D|-4--4-4-4-4-4--5--5-5-5-5-5--2--2-2-2-2-2--4--4-4-4-4-4--|
A|-4--4-4-4-4-4--5--5-5-5-5-5--2--2-2-2-2-2--4--4-4-4-4-4--|
E|-2--2-2-2-2-2--3--3-3-3-3-3--0--0-0-0-0-0--2--2-2-2-2-2--|

   F#            G             E             B
e|-2--2-2-2-2-2--3--3-3-3-3-3--0--0-0-0-0-0--2-2--2-2--2-2--2-2--|
B|-2--2-2-2-2-2--3--3-3-3-3-3--0--0-0-0-0-0--4-4--4-4--4-4--4-4--|
G|-3--3-3-3-3-3--4--4-4-4-4-4--1--1-1-1-1-1--4-4--4-4--4-4--4-4--|
D|-4--4-4-4-4-4--5--5-5-5-5-5--2--2-2-2-2-2--4-4--4-4--4-4--4-4--|
A|-4--4-4-4-4-4--5--5-5-5-5-5--2--2-2-2-2-2--2-2--2-2--2-2--2-2--|
E|-2--2-2-2-2-2--3--3-3-3-3-3--0--0-0-0-0-0----------------------|

Outro:
e|-----------|
B|-----------|
G|-6-----9---|
D|-6--7--9---|
A|-4--7--7---|
E|----5------|
            
Submit corrections


        Family Life lessons Hard to play? Try these video lessons and learn fast Family Life lessons
        
↑ Back to top | Tablatures and chords for acoustic guitar and electric guitar, ukulele, drums are parodies/interpretations of the original songs. You may use it for private study, scholarship, research or language learning purposes only