Home » S » Sham 69 »

Sham 69 - Borstal Breakout Bass

Artists:  A B C D E F G H I J K L M N O P Q R S T U V W X Y Z # 

Borstal Breakout Bass

(ver. 1) Click to play this song!
Sham 69
Bassist: Dave Treganna
Tuning: Standard

Intro:
G:|--------------------------|
D:|--------------------------|
A:|---------------------7-77-|
E:|-6/7-7--6/7-7--6/7-7------| x2

Verse:
G:|---------------------------------------------|
D:|---------------------------------------------|
A:|---------------------------------------------|
E:|-7777777777777777-6/7-7--6/7-7--6/7-7--6/7-7-| 

G:|---------------------------------------------|
D:|---------------------------------------------|
A:|-7777777777777777----------------------------|
E:|------------------6/7-7--6/7-7--6/7-7--6/7-7-| 

G:|-------------------------------------------|
D:|-------------------------------------------|
A:|-9999999977777777---------------------7-77-|
E:|------------------6/7-7--6/7-7--6/7-7------|

Chorus:
G:|-------------------------|
D:|-------------------------|
A:|---------------------5-7-|
E:|-6/7-7--6/7-7--6/7-7-----| x3

G:|---------------------|
D:|---------------------|
A:|---------------------|
E:|-6/7-7--6/7-7--6/7-7-| x1

Post-Chorus:
G:|--------------------------|
D:|--------------------------|
A:|---------------------7-77-|
E:|-6/7-7--6/7-7--6/7-7------| x2

Verse:
G:|---------------------------------------------|
D:|---------------------------------------------|
A:|---------------------------------------------|
E:|-7777777777777777-6/7-7--6/7-7--6/7-7--6/7-7-| 

G:|---------------------------------------------|
D:|---------------------------------------------|
A:|-7777777777777777----------------------------|
E:|------------------6/7-7--6/7-7--6/7-7--6/7-7-| 

G:|-------------------------------------------|
D:|-------------------------------------------|
A:|-9999999977777777---------------------7-77-|
E:|------------------6/7-7--6/7-7--6/7-7------|

Chorus:
G:|-------------------------|
D:|-------------------------|
A:|---------------------5-7-|
E:|-6/7-7--6/7-7--6/7-7-----| x3

G:|---------------------|
D:|---------------------|
A:|---------------------|
E:|-6/7-7--6/7-7--6/7-7-| x1

Post-Chorus:
G:|--------------------------|
D:|--------------------------|
A:|---------------------7-77-|
E:|-6/7-7--6/7-7--6/7-7------| x2

Bridge:
G:|----------------------------------------------------------|
D:|----------------------------------------------------------|
A:|-----------------------------77777777777777---------------|
E:|-7777777777777777777777777777--------------77777777777777-|

G:|-----------------------------------------|
D:|-----------------------------------------|
A:|-99999997777777---------------------7-77-|
E:|----------------6/7-7--6/7-7--6/7-7------|

Chorus:
G:|-------------------------|
D:|-------------------------|
A:|---------------------5-7-|
E:|-6/7-7--6/7-7--6/7-7-----| x3

G:|---------------------|
D:|---------------------|
A:|---------------------|
E:|-6/7-7--6/7-7--6/7-7-| x1

Post-Chorus:
G:|--------------------------|
D:|--------------------------|
A:|---------------------7-77-|
E:|-6/7-7--6/7-7--6/7-7------| x2

Verse:
G:|---------------------------------------------|
D:|---------------------------------------------|
A:|---------------------------------------------|
E:|-7777777777777777-6/7-7--6/7-7--6/7-7--6/7-7-| 

G:|---------------------------------------------|
D:|---------------------------------------------|
A:|-7777777777777777----------------------------|
E:|------------------6/7-7--6/7-7--6/7-7--6/7-7-| 

G:|-------------------------------------------|
D:|-------------------------------------------|
A:|-9999999977777777---------------------7-77-|
E:|------------------6/7-7--6/7-7--6/7-7------|

Chorus:
G:|-------------------------|
D:|-------------------------|
A:|---------------------5-7-|
E:|-6/7-7--6/7-7--6/7-7-----| x3

G:|-------------------|
D:|-------------------|
A:|-------------------|
E:|-6/7-7--6/7-7--7-7-| x1

Tablature Legend
----------------
/ = Slide up
            
Submit corrections

↑ Back to top | Tablatures and chords for acoustic guitar and electric guitar, ukulele, drums are parodies/interpretations of the original songs. You may use it for private study, scholarship, research or language learning purposes only