» » »

Shakey Graves - Tomorrow Tabs

Artists:  A B C D E F G H I J K L M N O P Q R S T U V W X Y Z # 

Tomorrow Tabs

(ver. 1) Click to play this song!
Shakey Graves
 Rating:
4/5 (4 votes)

 Tomorrow lessons Tabs too difficult? Try these video lessons and learn fast
 
                -------------------------------------------------------------------------------
-------------------------------------------------------------------------------

- TUNING: Standard
- CAPO: 2nd fret
- Alternating Bass Pattern played by the thumb = Palm Mute
- Just a rough guide to the main parts! He plays some variations here and there - * 
indicates some of them.



PT.1 (INTRO)

     G                C        G
   e|-----3----------|----------------|repeat from start
   B|---3-----3--0---|----1-0---------|
   G|----------------|----------------|
PM D|---0---0---0---0|---2---2---0---0|
PM A|----------------|0h3--3----------|
PM E|-3---3---3---3--|---------3---3--|


PT.2 (VERSE)

     G                G                C/G              G
   e|--------3-------|----------------|----------------|-----3----------|
   B|-----3----------|----------------|----------------|---3------------|
   G|----------------|----------------|----------0-----|----------------|
PM D|---0---0---0---0|---0---0---0---0|---2---2---2---2|---0---0---0---0|
PM A|----------------|----------------|-3-------3------|----------------|
PM E|-3---3---3---3--|-3---3---3---3--|-----3-------3--|-3---3---3---2--|

     Em               G                C/G              G
   e|----------------|----------------|----------------|-----3----------|
   B|----------------|----------------|----------------|---3------------|
PM G|---0---0---0---0|----------------|----------0-----|----------------|
PM D|---2---2---2---2|---0---0---0---0|---2---2---2---2|---0---0---0---0|
PM A|----------------|----------------|-3-------3------|----------------|
PM E|-0---0---0---0--|-3---3---3---3--|-----3-------3--|-3---3---3---3--|


PT.3

     Em               Em               C/G              G
   e|----------------|----------------|----------3*----|-----3----------|
   B|-----0*------0*-|----------------|----------------|---3------------|
   G|---0*-----------|--------------0*|----------------|----------------|
PM D|---2---2---2---2|---2---2---2---2|---2---2---2---2|---0---0---0---0|
PM A|----------------|----------------|-3-------3------|----------------|
PM E|-0---0---0---0--|-0---0---0---0--|-----3-------3--|-3---3---3---3--|


PM = Palm Mute
*  = variations
            
Submit corrections


        Tomorrow lessons Hard to play? Try these video lessons and learn fast Tomorrow lessons
        
↑ Back to top | Tablatures and chords for acoustic guitar and electric guitar, ukulele, drums are parodies/interpretations of the original songs. You may use it for private study, scholarship, research or language learning purposes only