Home » S » Shades Apart »

Shades Apart - Got Shot Down Tabs

Artists:  A B C D E F G H I J K L M N O P Q R S T U V W X Y Z # 

Got Shot Down Tabs

(ver. 1) Click to play this song!
Shades Apart
Intro/Chorus 

     C#m                Ab                  A    
]----4--4----4-4--4-4---4--4----4-4--4-4----5--5----5-5--5-5-- 
]----5--5----5-5--5-5---4--4----4-4--4-4----5--5----5-5--5-5-- 
]----6--6----6-6--6-6---5--5----5-5--5-5----6--6----6-6--6-6-- 
]----6--6----6-6--6-6---6--6----6-6--6-6----7--7----7-7--7-7-- 
]----4--4----4-4--4-4---6--6----6-6--6-6----7--7----7-7--7-7-- 
]----x--x----x-x--x-x---4--4----4-4--4-4----5--5----5-5--5-5-- 

    E    Ebm 
----7-----x--[ 
----9-----x--[ 
----9-----8--[ 
--9-9---8-8--[ 
--7-7---6-6--[ 
--x-x---x-x--[ 


Verse 
*Light Distortion Here* 
**make sure to hit all the 
high notes, except on the Eb** 
]----4-------4------5------7-------x-4------4------5-------7--- 
]----5-------4------5------9-------x-5------4------5-------9--- 
]----6-------5------6------9-------8-6------5------6-------9--- 
]----6-------6------7------9-------8-6------6------7-------9---   
]----4-------6------7------7-------6-4------6------7-------7--- 
]----x-------4------5------x-------x-x------4------5-------x--- 


Do up-down strums here 
---4-4--4-4---4-4--4-4---5-5--5-5---7-7--x-x---4-4--4-4---4-4--4-4- 
---5-5--5-5---4-4--4-4---5-5--5-5---9-9--x-x---5-5--5-5---4-4--4-4- 
---6-6--6-6---5-5--5-5---6-6--6-6---9-9--8-8---6-6--6-6---5-5--5-5- 
---6-6--6-6---6-6--6-6---7-7--7-7---9-9--8-8---6-6--6-6---6-6--6-6- 
---4-4--4-4---6-6--6-6---7-7--7-7---7-7--6-6---4-4--4-4---6-6--6-6- 
---x-x--x-x---4-4--4-4---5-5--5-5---x-x--x-x---x-x--x-x---4-4--4-4- 


--5-5--5-5---7---7--[ 
--5-5--5-5---9---9--[ 
--6-6--6-6---9---9--[ 
--7-7--7-7---9---9--[
--7-7--7-7---7---7--[ 
--5-5--5-5---x---x--[ 

Pre-Chorus
    shot one....                               (F#)   
]---5-5---0------------5-5---0------------5-5---2---4---[ 
]---5-5---0------------5-5---0------------5-5---2---4---[ 
]---6-6---1------------6-6---1------------6-7---3---5---[ 
]---7-7---2------------7-7---2------------7-7---4---6---[ 
]---7-7---2------------7-7---2------------7-7---4---6---[ 
]---5-5---0---9-7------5-5---0------9-7---5-5---2---4---[ 

Chorus
]----4--4----4-4--4-4---4--4----4-4--4-4----5--5----5-5--5-5-- 
]----5--5----5-5--5-5---4--4----4-4--4-4----5--5----5-5--5-5-- 
]----6--6----6-6--6-6---5--5----5-5--5-5----6--6----6-6--6-6-- 
]----6--6----6-6--6-6---6--6----6-6--6-6----7--7----7-7--7-7-- 
]----4--4----4-4--4-4---6--6----6-6--6-6----7--7----7-7--7-7-- 
]----x--x----x-x--x-x---4--4----4-4--4-4----5--5----5-5--5-5-- 

----7-----x--[ 
----9-----x--[ 
----9-----8--[ 
--9-9---8-8--[ 
--7-7---6-6--[ 
--x-x---x-x--[ 

Verse 2

]----4-------4------5------7-------x-4------4------5-------7--- 
]----5-------4------5------9-------x-5------4------5-------9--- 
]----6-------5------6------9-------8-6------5------6-------9--- 
]----6-------6------7------9-------8-6------6------7-------9---   
]----4-------6------7------7-------6-4------6------7-------7--- 
]----x-------4------5------x-------x-x------4------5-------x--- 


Do up-down strums here 
---4-4--4-4---4-4--4-4---5-5--5-5---7-7--x-x---4-4--4-4---4-4--4-4- 
---5-5--5-5---4-4--4-4---5-5--5-5---9-9--x-x---5-5--5-5---4-4--4-4- 
---6-6--6-6---5-5--5-5---6-6--6-6---9-9--8-8---6-6--6-6---5-5--5-5- 
---6-6--6-6---6-6--6-6---7-7--7-7---9-9--8-8---6-6--6-6---6-6--6-6- 
---4-4--4-4---6-6--6-6---7-7--7-7---7-7--6-6---4-4--4-4---6-6--6-6- 
---x-x--x-x---4-4--4-4---5-5--5-5---x-x--x-x---x-x--x-x---4-4--4-4- 


--5-5--5-5---7---7--[ 
--5-5--5-5---9---9--[ 
--6-6--6-6---9---9--[ 
--7-7--7-7---9---9--[
--7-7--7-7---7---7--[ 
--5-5--5-5---x---x--[ 



Pre-Chorus
    shot one....                               (F#)   
]---5-5---0------------5-5---0------------5-5---2---4---[ 
]---5-5---0------------5-5---0------------5-5---2---4---[ 
]---6-6---1------------6-6---1------------6-7---3---5---[ 
]---7-7---2------------7-7---2------------7-7---4---6---[ 
]---7-7---2------------7-7---2------------7-7---4---6---[ 
]---5-5---0----9-7-----5-5---0----9-7-----5-5---2---4---[ 

Chorus

]----4--4----4-4--4-4---4--4----4-4--4-4----5--5----5-5--5-5-- 
]----5--5----5-5--5-5---4--4----4-4--4-4----5--5----5-5--5-5-- 
]----6--6----6-6--6-6---5--5----5-5--5-5----6--6----6-6--6-6-- 
]----6--6----6-6--6-6---6--6----6-6--6-6----7--7----7-7--7-7-- 
]----4--4----4-4--4-4---6--6----6-6--6-6----7--7----7-7--7-7-- 
]----x--x----x-x--x-x---4--4----4-4--4-4----5--5----5-5--5-5-- 

----7-----x--[ 
----9-----x--[ 
----9-----8--[ 
--9-9---8-8--[ 
--7-7---6-6--[ 
--x-x---x-x--[ 



Pre-solo(play rapid)
]--4-4-4-4-4-4-4-- 
]--5-5-5-5-5-5-6-- 
]--6-6-6-6-6-6-6-- 
]--6-6-6-6-6-6-6-- 
]--4-4-4-4-4-4-4-- 
]--x-x-x-x-x-x-x--

--4-4-4-4-4-4-4--[ 
--5-5-5-5-5-5-6--[ 
--6-6-6-6-6-6-6--[ 
--6-6-6-6-6-6-6--[ 
--4-4-4-4-4-4-4--[ 
--x-x-x-x-x-x-x--[


Solo- End is still being worked on,
here's the majority(still a few errors)

]------------------------------------------------------------------ 
]------------------------------------------------------------------ 
]--------9--9-9--9-8-8--------------------------------------------- 
]--------------------------10--6---------9b------9b---------------- 
]--11b----------------------------9--7-7-----7-7-----7-9-7-6-7-6--- 
]----------------------------------------------------------------7- 

*** Here I only put each chord once but it's more than that.
I've given you enough here to where you can figur it out.
Play Rapid***
[ ]=only play once
-4---4-[5]--[7]--5-/-??????????------------------------------ 
-5---4-[5]--[7]--5-/-??????????------------------------------ 
-6---5-[6]--[8]--6-/-??????????-------- Don't Know Solo ----- 
-6---6-[7]--[9]--7-/-??????????----------- Ending Yet ------- 
-4---6-[7]--[9]--7-/-??????????------------------------------ 
-x---4-[5]--[7]--5-/-??????????---------(coming soon)-------- 


Pre-Chorus
    shot one....                               (F#)   
]---5-5---0------------5-5---0------------5-5---2---4---[ 
]---5-5---0------------5-5---0------------5-5---2---4---[ 
]---6-6---1------------6-6---1------------6-7---3---5---[ 
]---7-7---2------------7-7---2------------7-7---4---6---[ 
]---7-7---2------------7-7---2------------7-7---4---6---[ 
]---5-5---0----9-7-----5-5---0----9-7-----5-5---2---4---[ 

Chorus (extend for extra lyrics- You'll figure it out)
C#m Ab A 
]----4--4----4-4--4-4---4--4----4-4--4-4----5--5----5-5--5-5-- 
]----5--5----5-5--5-5---4--4----4-4--4-4----5--5----5-5--5-5-- 
]----6--6----6-6--6-6---5--5----5-5--5-5----6--6----6-6--6-6-- 
]----6--6----6-6--6-6---6--6----6-6--6-6----7--7----7-7--7-7-- 
]----4--4----4-4--4-4---6--6----6-6--6-6----7--7----7-7--7-7-- 
]----x--x----x-x--x-x---4--4----4-4--4-4----5--5----5-5--5-5-- 

E Ebm 
----7-----x--[ 
----9-----x--[ 
----9-----8--[ 
--9-9---8-8--[ 
--7-7---6-6--[ 
--x-x---x-x--[ 
            
Submit corrections

↑ Back to top | Tablatures and chords for acoustic guitar and electric guitar, ukulele, drums are parodies/interpretations of the original songs. You may use it for private study, scholarship, research or language learning purposes only