Home » S » Shades Apart »

Shades Apart - Edge Of The Century Bass

Artists:  A B C D E F G H I J K L M N O P Q R S T U V W X Y Z # 

Edge Of The Century Bass

(ver. 1) Click to play this song!
Shades Apart
Shades Apart
Edge of the Century
Eyewitness
Universal 1999

intro/verse

g--------------------------------------------
d--------------------------------------------
a--------------------------------------------
e-2-0-2--2--0-2-0-2--2--0-2-0-2--2--0-2-0-2--

g---
d---
a----------------------------------------------2-4-2p0--
e-2--2-5-2-5--5--2-5-2-5--5--2-5-2-5--5--2-5-2-----------


play once for intro, twice for verse

on 2nd time of verse...

g---
d---
a(2-4-2p0)------/5555555p0----------
e-----------0-----------------------


chorus
g---
d---
a---
e-2-2--2-2-2--2-2-2--2-2-2-0-2-3-3--3-3-3--3-3-3--


g---
d---
a---4-2p0-2-2-2-2-2-2-2-2-5-5-5-5-5-5-5-5-0-0-0-0-0-0-0-0-(0)---
e-3-------------------------------------------------------------
(hold)

g---
d---
a-4-2-0-
e-------
play 2x

g-------------------------------------------------
d-------------------------------------------------
a-----------------------------------------0-------
e-2-0-2--2--0-2-0-2--2--0-2-0-2--2--0-2-0--4-2p0--

back to verse

then play the chorus

bridge(solo)= verse

chorus

chorus ending twice

a-----
e-2-0-2--
            
Submit corrections

↑ Back to top | Tablatures and chords for acoustic guitar and electric guitar, ukulele, drums are parodies/interpretations of the original songs. You may use it for private study, scholarship, research or language learning purposes only