» » »

Sex Pistols - Watcha Gonna Do About It Tabs

Artists:  A B C D E F G H I J K L M N O P Q R S T U V W X Y Z # 

Watcha Gonna Do About It Tabs

(ver. 1) Click to play this song!
Sex Pistols
 Rating:
4/5 (4 votes)

 Watcha Gonna Do About It lessons Tabs too difficult? Try these video lessons and learn fast
 
                -------------------------------------------------------------------------------
                             Whatcha Gonna Do About It? - Sex Pistols
-------------------------------------------------------------------------------

Tuning: Standard

Corrections: Since doing this TAB I've been listening some more and realised that it  might
be half a step down. However it sounds fine in standard if you play everything one fret down.

Verse (Repeat Untill Chorus)

(In this you don't strum the muted strings, you mute the chord if you get me?) <--I 
what I'm trying to say is that you quiickly release the chord before holding it again.

e|--------------------------------------------------------------------|
B|--------------------------------------------------------------------|
G|----8-x-8-x-8-x-8--6-x-6-x-6-x-6------------------------------------|
D|----8-x-8-x-8-x-8--6-x-6-x-6-x-6------------------------------------|
A|----6-x-6-x-6-x-6--4-x-4-x-4-x-4------------------------------------|
E|--------------------------------------------------------------------|

Chorus:

e|----------------------------------------------------------------------------|
B|----------------------------------------------------------------------------|
G|----8-8-8-8-x-6-6-6-6-x-8-8-8-8-x-------------------------------------------|
D|----8-8-8-8-x-6-6-6-6-x-8-8-8-8-x-6-6-6-6-x---------------------------------|
A|----6-6-6-6-x-4-4-4-4-x-6-6-6-6-x-6-6-6-6-x---------------------------------|
E|----------------------------------4-4-4-4-x---------------------------------|

Repeat Twice for chorus ^^

Chorus Could Also Be Played Like This (Both Sound Fine):

e|---------------------------------------------------------------------------|
B|---------------------------------------------------------------------------|
G|----8-8-8-8-x-6-6-6-6-x-8-8-8-8-x-6-6-6-6-x--------------------------------|
D|----8-8-8-8-x-6-6-6-6-x-8-8-8-8-x-6-6-6-6-x--------------------------------|
A|----6-6-6-6-x-4-4-4-4-x-6-6-6-6-x-4-4-4-4-x--------------------------------|
E|---------------------------------------------------------------------------|


That's the whole song as far as I can hear (bar the solo which I believe is probably 
I based this TAB on the version
included on 'The Great Rock 'n' Roll Swindle' and them playing it live at 'Manchester
needed.
I know it's a pretty cliche thing to say by now but this is my first TAB so don't be too harsh.
I think it sounds right, so in a way...I don't give a sh*t what you think.
            
Submit corrections


        Watcha Gonna Do About It lessons Hard to play? Try these video lessons and learn fast Watcha Gonna Do About It lessons
        
↑ Back to top | Tablatures and chords for acoustic guitar and electric guitar, ukulele, drums are parodies/interpretations of the original songs. You may use it for private study, scholarship, research or language learning purposes only