» » »

Sex Pistols - Substitute Tabs

Artists:  A B C D E F G H I J K L M N O P Q R S T U V W X Y Z # 

Substitute Tabs

(ver. 1) Click to play this song!
Sex Pistols
 Rating:
4/5 (4 votes)

 Substitute lessons Tabs too difficult? Try these video lessons and learn fast
 
                SEX PISTOLS-SUBSTITUTE
OKI KNOW THIS IS COVER FROME THE WHO BUT THE GUITAR 
IS VERY DIFFERENT WIT THE PISTOL.....STEVE JONES YOU KICK ASS!!
  !!!!!!!!OK THIS IS MY WAY THE I PLAY IT IT SOUNDS LIKE IT ITS GOOD!!!
  !!!!!!!!I WANT SOMEONE TO TRY AND TAB IT TO CUZ THIS SONG I ALWAYS WANTED TO PLAY  
!!!!!!SO PLEASE RATE IT TO SEE HOW GOOD I DID!!!!! 
USE DISTORTON THRU THE HOLE SONG
INTRO REAPET THIS 4 TIMES
E--------------------
B--------------------
G--------------------
D-8-8------------8-8-
A-6-6-8-6----6-6-6-6-
E-----6-4----4-4-----
THE OTHER GUITAR GOES LIKE THIS (LET RING) IF YOU HAVE ONE GUITAR DONT DO THIS
E-5---7---1
B-5---7---1
G-6---8---2
D-7---9---3
A-7---9---3
E-5---7---1

AFTER COMES THIS REAPET 2 TIMES
E---------------------------------------------------
B---------------------------------------------------
G---------------------------------------------------
D-8-8-8-8-8-8-8---------------8-------8---8-------8-
A-6-6-6-6-6-6-6-8-8-8-8-8-8-8-6-6-6-6-6---6-8-8-8-6-
E---------------6-6-6-6-6-6-6---4-4-4-------4-4-4---

VERSE REAPET 2 TIMES
E---------------------------------------------------
B---------------------------------------------------
G---------------------------------------------------
D-8-8-8-8-8-8-8---------------8-------8---8-------8-
A-6-6-6-6-6-6-6-8-8-8-8-8-8-8-6-6-6-6-6---6-6-6-6-6-
E---------------6-6-6-6-6-6-6---4-4-4-------4-4-4---

AFTER DO NOT REALESE BEND 
E------
B------
G------I DONT KNOW WHAT HE DOES AFTER
D-9B/7-
A------
E------

CHORUS

I DONT KNOW WHAT HE DOES AS CHORUS GUITAR CHORUS IS HARD BUT NOT BASS

BUT HERES BASS CUZ ITS COOL CHORUS
D------------------6-8-8-6-7-
A-6-6-------6----6-----------
E-----8-6-6------------------

SOLO ROUGH DRAFT OF WHAT HE DOES
E-4-4----4-4-
B-4-4----4-4-
G-----6B-----6B
D
A
E

OUTRO THE LITTLE GUIATR THING
E-------------
B-7-3-5-3-3-3-
G-7-2-6-4-4-2-

ITS PUNK ALL THE VERSE AND CHORUS ARE THE SAME AN PLEASE SOMEONE FINISH WHAT I STARTED AND FIX IT IF ITS WRONG THIS IS THE BEST I COULD DO
            
Submit corrections


        Substitute lessons Hard to play? Try these video lessons and learn fast Substitute lessons
        
↑ Back to top | Tablatures and chords for acoustic guitar and electric guitar, ukulele, drums are parodies/interpretations of the original songs. You may use it for private study, scholarship, research or language learning purposes only