» » »

Sex Pistols - Seventeen Tabs

Artists:  A B C D E F G H I J K L M N O P Q R S T U V W X Y Z # 

Seventeen Tabs

(ver. 1) Click to play this song!
Sex Pistols
 Rating:
4/5 (4 votes)

 Seventeen lessons Tabs too difficult? Try these video lessons and learn fast
 
                Sex Pistols - Seventeen




~ = let ring
/ = slide
pm = palm mute

Intro/Chorus:

e----------------------------------------------------------------
b----------------------------------------------------------------
g---7---------7-7---------7-7---9-9-9-9-9-9-9-9-9-9-9-9-9-9-9----
d---7---7-7---7-7---7-7---7-7---9-9-9-9-9-9-9-9-9-9-9-9-9-9-9----
a---5---7-7---5-5---7-7---5-5---7-7-7-7-7-7-7-7-7-7-7-7-7-7-7----
e-------5-5---------5-5------------------------------------------
let ring~~~~~~~~~~~~~~~~~~~~~


Verse: (3x)

e-------------------------------------------------------------------
b-------------------------------------------------------------------
g------------7-7-7-7-7-7-7-7-7-7-------------9-9-9-9-9-9-9-9-9-9----
d---7-7~-----7-7-7-7-7-7-7-7-7-7---7-7~------9-9-9-9-9-9-9-9-9-9----
a---7-7~-----5-5-5-5-5-5-5-5-5-5---7-7~------7-7-7-7-7-7-7-7-7-7----
e---5-5~---------------------------5-5~-----------------------------

e-------------------------------------------------------------------
b-------------------------------------------------------------------
g------------7-7-7-7-7-7-7-7-7-7/9-9-9-9-9-9-9-9-9-9-9-9------------
d---7-7~-----7-7-7-7-7-7-7-7-7-7/9-9-9-9-9-9-9-9-9-9-9-9------------
a---7-7~-----5-5-5-5-5-5-5-5-5-5/7-7-7-7-7-7-7-7-7-7-7-7------------
e---5-5~------------------------------------------------------------


Bridge:

e-----------------------------------------------------
b-----------------------------------------------------
g-----------------------------------7-7-7-7-7-7-7-7---
d---7~--pickslide--7-7-7-7-7-7-7-7--7-7-7-7-7-7-7-7---
a---7~-------------7-7-7-7-7-7-7-7--5-5-5-5-5-5-5-5---
e---5~-------------5-5-5-5-5-5-5-5--------------------
	          pm..............................

                 2x
e------------------ -------------------------------------
b------------------ -------------------------------------
g---2-2~--7-7--7~-- -------------------7-7-7-7-7-7-7-7---
d---2-2~--7-7--7~-- --7-7-7-7-7-7-7-7--7-7-7-7-7-7-7-7---
a---0-0~--5-5--5~-- --7-7-7-7-7-7-7-7--5-5-5-5-5-5-5-5---
e------------------ --5-5-5-5-5-5-5-5--------------------                 
                      pm..............................


e------------------ --------------------------------------------------
b------------------ --------------------------------------------------
g---2-2~--7-7--7~-- --2-2~--9-9--9~--9-9-9-9-9-9-9-9-9-9-9-9-9-9-9----
d---2-2~--7-7--7~-- --2-2~--9-9--9~--9-9-9-9-9-9-9-9-9-9-9-9-9-9-9----
a---0-0~--5-5--5~-- --0-0~--7-7--7~--7-7-7-7-7-7-7-7-7-7-7-7-7-7-7----
e------------------ --------------------------------------------------


2nd Chorus:
		                  22x
e------------------------------- ------
b------------------------------- ------
g---7---------7-7---------7-7--- --9---
d---7---7-7---7-7---7-7---7-7--- --9---
a---5---7-7---5-5---7-7---5-5--- --7---
e-------5-5---------5-5--------- ------
let ring~~~~~~~~~~~~~~~~~~~~~


Outro:

e------------
b------------
g------------
d----7~~~----
a----7~~~----
e----5~~~----



Song Structure:

1. Intro
2. Verse
3. Chorus
4. Bridge
5. 2nd Chorus
6. Outro


Thats pretty much the whole song...
            
Submit corrections


        Seventeen lessons Hard to play? Try these video lessons and learn fast Seventeen lessons
        
↑ Back to top | Tablatures and chords for acoustic guitar and electric guitar, ukulele, drums are parodies/interpretations of the original songs. You may use it for private study, scholarship, research or language learning purposes only