Home » S » Sex Pistols »

Sex Pistols - God Saved The Queen Tabs

Artists:  A B C D E F G H I J K L M N O P Q R S T U V W X Y Z # 

God Saved The Queen Tabs

(ver. 1) Click to play this song!
Sex Pistols
 Rating:
4/5 (4 votes)
                Tuning: Standard


E|----------------------------|------------------------------|
B|----------------------------|------------------------------|
G|----------------------------|------------------------------|
D|-13/14--14--14---14--14--14-|-13/14--14--14--13/14--14--14-|
A|-11/12--12--12---12--12--12-|-11/12--12--12--11/12--12--12-|
E|----------------------------|------------------------------|


E|----------------------------|
B|----------------------------|
G|----------------------------|
D|-13/14--14--14---14--14--14-|
A|-11/12--12--12---12--12--12-|
E|----------------------------|

 Pre Verse 3x
E|----------------------------|-----------------------------|
B|-------3-3----3-------------|-----------------------------|
G|-2~~~--2-2----2--0----------|-1/2-2-2-2-2--1/2-2-2-2-2----|
D|-2~~~--0-0----0--0----------|-1/2-2-2-2-2--1/2-2-2-2-2----|
A|-0~~~-------4---------------|-0/0-0-0-0-0--0/0-0-0-0-0----|
E|----------------------------|-----------------------------|

 Verse 4x
E|----------------------------|
B|----------------3--3---3----|
G|-2-2-2-2-2-2-2--2--2---2--0-|
D|-2-2-2-2-2-2-2--0--0---0--0-|
A|-0-0-0-0-0-0-0-------4------|
E|----------------------------|
PM..............|

 I got a lot of this from Guitar World’s January 1995 issue
 The Sex Pistols were totally cool and they still are!
            
Submit corrections

↑ Back to top | Tablatures and chords for acoustic guitar and electric guitar, ukulele, drums are parodies/interpretations of the original songs. You may use it for private study, scholarship, research or language learning purposes only