» » »

Seven Mary Three - Untitled Song Tabs

Artists:  A B C D E F G H I J K L M N O P Q R S T U V W X Y Z # 

Untitled Song Tabs

(ver. 1) Click to play this song!
Seven Mary Three
 Rating:
4.2/5 (5 votes)

 Untitled Song lessons Tabs too difficult? Try these video lessons and learn fast
 
                Untitled
Seven Mary Three
CD:Backbooth


Here's the basic rythm riffs--just play the riff associated with the chord
Verse:
 G               Csus
--------------- ----------------|
-----0--------- ------0---------|
-------0-----0- --------0-----0-|
---0-------0--- ----2-------2---|
--------------- --3-------3-----|
-3-------3----- ----------------|

Chorus:
 G*           D/F#        Em          C     B/G  G               G
-------------------------------------------------------------------------------|
-----0-----------3-----------0-----------------------0---------------0---------|
-------0---0-------2---2-------0---0-----0-----0-------0-----0---------0-----0-|
---0-----0-----0-----0-----2-----0-----2-----0-----0-------0-------0-------0---|
-------------------------------------3-----2-----------------------------------|
-3-----------2-----------0-----------------------3-------3-------3-------3-----|

Intro: G 4x

G                   G       G        G
  I have rescued you from a trail of tears
     Csus     Csus
In a world of fear
        G                G
Did you know that I'd be there?
G                        G
 Every time I speak your name
G                               G
 There's a shiver that holds me close
Csus                     Csus
 From a pin prick famous place
G                                     G
 Where heaven forgets what you should know

G*    D/F#    Em   C B/G G   G


G                        G
 You've outlasted all my friends
G                                G
 I buried roots and you dig them up
Csus                      Csus
 And you share with me my name
G                               G
 A perfect circle never give it up

        G*             D/F#  Em             C  B/G  G  G
Did you think it would be anyone other than me dear?

G G

G                         G
 Empty bottles and broken shoes
G                              G
 You whisper close to my body "hush"
Csus                                  Csus
 'Cause if every word could change my face
G                                G
 Not half as much as I need your touch

        G*             D/F#  Em             C  B/G  G  G
Did you think it would be anyone other than me dear?

        G*             D/F#  Em             C  B/G  G(rake on last G)
Did you think it would be anyone other than me dear?
            
Submit corrections


        Untitled Song lessons Hard to play? Try these video lessons and learn fast Untitled Song lessons
        
↑ Back to top | Tablatures and chords for acoustic guitar and electric guitar, ukulele, drums are parodies/interpretations of the original songs. You may use it for private study, scholarship, research or language learning purposes only