» » »

Seven Mary Three - Rock Crown Tabs

Artists:  A B C D E F G H I J K L M N O P Q R S T U V W X Y Z # 

Rock Crown Tabs

(ver. 1) Click to play this song!
Seven Mary Three
 Rating:
4/5 (4 votes)

 Rock Crown lessons Tabs too difficult? Try these video lessons and learn fast
 
                ROCKCROWN 
SEVEN MARY THREE 

Intro 
Rhy. (Fig 1)repeat 11 times   G    E 
e--00-000------------------------------------------------- 
b--00-333------------------------------------------------- 
g--44-444------------------------------444--444--444--444- 
d--44-444---------------------55---22--444--444--444--444- 
a--22-222---------------------55---22--022--022--022--022- 
e-----------------------------33---00--------------------- 

   Well I  haven't seen a doctor since I cant remember when 
-----------00-000---------00-000-------00-000-------00-000- 
-----------00-333---------00-333-------00-333-------00-333- 
-----------44-444---------44-444-------44-444-------44-444- 
-----------44-444---------44-444-------44-444-------44-444- 
-----------22-222---------22-222-------22-222-------22-222- 
----------------------------------------------------------- 

             *Bass(F#)     
   But she tells me I've been a talker  since 1976 
----------------------------------------------00-000--00-000 
----------------------------------------------00-333--00-333 
----------------------------------------------44-444--44-444 
---5-----------------------------2------------44-444--44-444 
---5-----------------------------2------------22-222--22-222 
---3-----------------------------0-------------------------- 


   we went up to the lake and I remember this    
----------------------------------------------00-000--00-000 
----------------------------------------------00-333--00-333 
-----4-444------4-444------4-444------4-444---44-444--44-444 
-----4-444------4-444------4-444------4-444---44-444--44-444 
-----0-222------0-222------0-222------0-222---22-222--22-222 
------------------------------------------------------------ 

   Oh         (F#)                my family secret  
----------------------------------------------00-000--00-000 
----------------------------------------------00-333--00-333 
----------------------------------------------44-444--44-444 
---5-----------------------------2------------44-444--44-444 
---5-----------------------------2------------22-222--22-222 
---3-----------------------------0-------------------------- 

(Chorus) 
   Pitts in my skin    where I let you in 
-----------------0---------------------0------00-000--00-000 
---0---------------0-----------0---------0----00-333--00-333 
---2---------------------------2--------------44-444--44-444 
---2---------------------------2--------------44-444--44-444 
---0---------------------------0--------------22-222--22-222 
------------------------------------------------------------ 


                                                repeat this  
   This rockcrown  never   let you down       *  once more  *        
-------------------0------------------0-------00-000--00-000 
---0-----------------0-----0------------0-----00-333--00-333 
---2-----------------------2------------------44-444--44-444  X2 
---2-----------------------2------------------44-444--44-444 
---0-----------------------0------------------22-222--22-222 
------------------------------------------------------------ 

   I'm a season in hell         20 years  from showing up 
------------------------------------------------------------ 
------------------------------------------------------------ 
---4-------------------------------------------------------- 
---4-------------------------------------------------------- 
---2-------------------------------------------------------- 
------------------------------------------------------------ 
   *let chord ring                                        

              *Bass (F#)  
   Down      on your          scene   without  a  semblance 
----------------------------------------------00-000--00-000 
----------------------------------------------00-333--00-333 
----------------------------------------------44-444--44-444 
---5------------------------------2-----------44-444--44-444 
---5------------------------------2-----------22-222--22-222 
---3------------------------------0------------------------- 


   of what ive seen,tell me what ive seen,tell me what ive seen 
------------------------------------------------------------ 
------------------------------------------------------------ 
--------------4-44---------4-44---------4-44--------4-44---- 
--------------4-44---------4-44---------4-44--------4-44---- 
--------------0-22---------0-22---------0-22--------0-22---- 
------------------------------------------------------------ 

  

             *(Bass F#)     
   enough to make this young man      filthy filthy clean 
----------------------------------------------00-000--00-000 
----------------------------------------------00-333--00-333 
----------------------------------------------44-444--44-444 
---5-------------------------2----------------44-444--44-444 
---5-------------------------2----------------22-222--22-222 
---3-------------------------0------------------------------ 



   pitts in my skin       where I let you in 
-----------------0---------------------0------00-000--00-000 
---0---------------0-----------0---------0----00-333--00-333 
---2---------------------------2--------------44-444--44-444 
---2---------------------------2--------------44-444--44-444 
---0---------------------------0--------------22-222--22-222 
------------------------------------------------------------ 

    

   this rockcrown  never        let you down 
-------------------0-------------------0-- 
---0-----------------0---------0---------0 
---2---------------------------2---------- 
---2---------------------------2---------- 
---0---------------------------0---------- 
------------------------------------------ 


   (solo section) 
                                                            
   |----------------^----------------------------^--^------^---^ 
   |-13-14-16-17----20-17-^-----------13-15-16---20-20-17--17-17 
   |-16-17-19-20---------19-17--------16-18-19------------------ 
   |--------------------------19-17----------------------------- 
   |------------------------------------------------------------ 
   |------------------------------------------------------------ 
   | 
   |------------------------------------------------------------ 
   |------------------------------------------------------------ 
   |--4444-----------4444-----------4444-----------4444--------- 
   |--4444------2----4444------2----4444------2----4444------2-- 
   |--2222------2----2222------2----2222------2----2222------2-- 
   |--------333-0----------333-0----------333-0----------333-0-- 

    




    pitts in my skin         where  I let you in 
   |-------------------------------------------------------------- 
   |------------------------------------------13-----------17----- 
   |------------------------------------------16-----------20----- 
   |-------------------------------------------------------------- 
   |-------------------------------------------------------------- 
   |-------------------------------------------------------------- 
   | 
   |----------------0--------------------------0----00-000--00-000 
   |0-----------------0--------------0----------0---00-333--00-333 
   |2--------------------------------2--------------44-444--44-444 
   |2--------------------------------2--------------44-444--44-444 
   |0--------------------------------0--------------22-222--22-222 
   |-------------------------------------------------------------- 


    this rockcrown  never         let you down 
   |--------------------------------------------- 
   |---------------17---------------------------- 
   |---------------20---------------------------- 
   |--------------------------------------------- 
   |--------------------------------------------- 
   |--------------------------------------------- 
   |    
   |----------------0--------------------------0- 
   |0-----------------0-----------0-------------0 
   |2-----------------------------2-------------- 
   |2-----------------------------2-------------- 
   |0-----------------------------0-------------- 
   |--------------------------------------------- 
  
    down        let me down   let me down  
--4444----------4444----------4444----------4444--------------4- 
--4444-----2----4444-----2----4444-----2----4444-----2--------4- 
--2222-----2----2222-----2----2222-----2----2222-----2--------2- 
-------333-0---------333-0---------333-0---------333-0----------
            
Submit corrections


        Rock Crown lessons Hard to play? Try these video lessons and learn fast Rock Crown lessons
        
↑ Back to top | Tablatures and chords for acoustic guitar and electric guitar, ukulele, drums are parodies/interpretations of the original songs. You may use it for private study, scholarship, research or language learning purposes only