» » »

Seven Mary Three - Made To Be Broken Chords

Artists:  A B C D E F G H I J K L M N O P Q R S T U V W X Y Z # 

Made To Be Broken Chords

(ver. 1) Click to play this song!
Seven Mary Three
 Rating:
4.3/5 (9 votes)

 Made To Be Broken lessons Tabs too difficult? Try these video lessons and learn fast
 
                [Verse]
D                  F               D                  F
 Some things are made to be broken. Some things are made to be kept
D               Bb                 F               A
 We're in the space between what's over and what's left
D                F               D             F
 If I tried too hard to keep you, I did it so I could reach you
D          Bb            F                A
 I had to re-arrange the only things that work for me

[Chorus]
           Bb                    G
There's a face in here from the past
        Bb                G
It's an ocean under the glass
      Bb                F                   Bb               A
And I hang it up on the wall and never look back, never look back

[Verse]
D              F              D                 F
 Part of this happened slowly. And part of it's over now
D                   Bb             F            A
 What happens when everything you want never arrives?

[Chorus]
       Bb                G
Little scar shaped souvenirs
        Bb               G
Are the only witnesses here
     Bb       F                  Bb               A
Of a faded alibi that used to be mine, used to be mine, mine, mine

   C D5      C   F    G        F   C D5      C   F G       F
                 Some things are made      to be
d|-------------|-----------------|-------------|-------------|
A|-------------|-----------------|-------------|-------------|
F|-5-7-7-7-7-5-|-----------------|-5-7-7-7-7-5-|-------------|
C|-5-7-7-7-7-5-|-3----5-5-5--5-3-|-5-7-7-7-7-5-|-3-5-5-5-5-3-|
G|-3-5-5-5-5-3-|-3----5-5-5--5-3-|-3-5-5-5-5-3-|-3-5-5-5-5-3-|
C|-------------|-3----5-5-5--5-3-|-------------|-3-5-5-5-5-3-|

   C D5      C   F   G         F   C D5      C   F G       F
                Some things  are     made          to be
d|-------------|-----------------|-------------|-------------|
A|-------------|-----------------|-------------|-------------|
F|-5-7-7-7-7-5-|-----------------|-5-7-7-7-7-5-|-------------|
C|-5-7-7-7-7-5-|-3---5-5-5---5-3-|-5-7-7-7-7-5-|-3-5-5-5-5-3-|
G|-3-5-5-5-5-3-|-3---5-5-5---5-3-|-3-5-5-5-5-3-|-3-5-5-5-5-3-|
C|-------------|-3---5-5-5---5-3-|-------------|-3-5-5-5-5-3-|

Bb      Bb
  Broken, Broken

   C D5      C   F   G         F   C D5      C   F G       F
                Some things  are     made          to be
d|-------------|-----------------|-------------|-------------|
A|-------------|-----------------|-------------|-------------|
F|-5-7-7-7-7-5-|-----------------|-5-7-7-7-7-5-|-------------|
C|-5-7-7-7-7-5-|-3---5-5-5---5-3-|-5-7-7-7-7-5-|-3-5-5-5-5-3-|
G|-3-5-5-5-5-3-|-3---5-5-5---5-3-|-3-5-5-5-5-3-|-3-5-5-5-5-3-|
C|-------------|-3---5-5-5---5-3-|-------------|-3-5-5-5-5-3-|

Bb          Bb                    G
 There's a face in here from the past
        Bb                G
It's an ocean under the glass
      Bb                F                Bb               C
And I hang it up on the wall  never look back, never look back
       Bb                G
Little scar shaped souvenirs
        Bb               G
Are the only witnesses here
     Bb       F                  Bb               A
Of a faded alibi that used to be mine, used to be mine, mine, mine, mine

[Outro]
   C D5      C   F G       F
d|-------------|-------------|
A|-------------|-------------|
F|-5-7-7-7-7-5-|-------------| (3x)
C|-5-7-7-7-7-5-|-3-5-5-5-5-3-|
G|-3-5-5-5-5-3-|-3-5-5-5-5-3-|
C|-------------|-3-5-5-5-5-3-|

   F G       F   D
d|-------------|---|
A|-------------|---|
F|-------------|---|
C|-3-5-5-5-5-3-|-0-|
G|-3-5-5-5-5-3-|-0-|
C|-3-5-5-5-5-3-|-0-|
            
Submit corrections


        Made To Be Broken lessons Hard to play? Try these video lessons and learn fast Made To Be Broken lessons
        
↑ Back to top | Tablatures and chords for acoustic guitar and electric guitar, ukulele, drums are parodies/interpretations of the original songs. You may use it for private study, scholarship, research or language learning purposes only