» » »

Seven Mary Three - Hammer And A Stone Live Tabs

Artists:  A B C D E F G H I J K L M N O P Q R S T U V W X Y Z # 

Hammer And A Stone Live Tabs

(ver. 1) Click to play this song!
Seven Mary Three
 Rating:
4.3/5 (6 votes)

 Hammer And A Stone Live lessons Tabs too difficult? Try these video lessons and learn fast
 
                [Intro]

(Played twice)

E|--------------------------|----------------------------|
B|-----------1-----------1--|-----------1-----------1----|
G|-----2-----------2--------|-----2-----------2----------| (x2)
D|--3-----3-----3-----3-----|--3-----3-----3-----3-------|
A|--------------------------|----------------------------|
E|--------------------------|----------------------------|

E|--------------------------|----------------------------|
B|-----------1-----------1--|-----------1-----------1----|
G|-----2-----------2--------|-----2-----------2----------| (x2)
D|--------0-----0-----0-----|--------0-----0-----0-------|
A|--3-----------------------|--3-------------------------|
E|--------------------------|----------------------------|

[Verse 1]
(Played 4 times)

E|--------------------------|----------------------------|
B|-----------1-----------1--|-----------1-----------1----|
G|-----2-----------2--------|-----2-----------2----------|
D|--3-----3-----3-----3-----|--3-----3-----3-----3-------|
A|--------------------------|----------------------------|
E|--------------------------|----------------------------|

E|--------------------------|----------------------------|
B|-----------1-----------1--|-----------1-----------1----|
G|-----2-----------2--------|-----2-----------2----------|
D|--------0-----0-----0-----|--------0-----0-----0-------|
A|--3-----------------------|--3-------------------------|
E|--------------------------|----------------------------|

I'm digging through the darkness
Because I'm a long wall miner
Following a road down
Just so I can sit beside her
I'm a page torn from your novel
Beneath a magnet on your fridge
I'm the stars stuck on your ceiling
So I can watch you while your sleeping

[Chorus]
(Played 4 times)

E|--------------------------|----------------------------|
B|-----------1-----------1--|-----------1-----------1----|
G|-----2-----------2--------|-----2-----------2----------|
D|--2-----2-----2-----2-----|--2-----2-----2-----2-------|
A|--------------------------|----------------------------|
E|--------------------------|----------------------------|

E|--------------------------|----------------------------|
B|-----------1-----------1--|-----------1-----------1----|
G|-----2-----------2--------|-----2-----------2----------|
D|--3-----3-----3-----3-----|--3-----3-----3-----3-------|
A|--------------------------|----------------------------|
E|--------------------------|----------------------------|

E|--------------------------|----------------------------|
B|-----------1-----------1--|-----------1-----------1----|
G|-----2-----------2--------|-----2-----------2----------|
D|--------0-----0-----0-----|--------0-----0-----0-------|
A|--3-----------------------|--3-------------------------|
E|--------------------------|----------------------------|

E|-----------------------------|-------------------------------|
B|-----------3--------3--------|-----------3--------3----------|
G|-----0--------0--------0-----|-----0--------0--------0-------|
D|-----------------0--------0--|-----------------0--------0----|
A|-----------------------------|-------------------------------|
E|--3-----3--------------------|--3-----3----------------------|

Would you remember me
Do you remember me because
I wanted you so bad
Do you remember me
Do you remember me because
Everything we had

Was like a hammer to a stone
Wrapped like a fender around a tree
The curiosity in you
And all the emptiness in me

[Post Chorus]

E|--------------------------|----------------------------|
B|-----------1-----------1--|-----------1-----------1----|
G|-----2-----------2--------|-----2-----------2----------| (x2)
D|--3-----3-----3-----3-----|--3-----3-----3-----3-------|
A|--------------------------|----------------------------|
E|--------------------------|----------------------------|

E|--------------------------|----------------------------|
B|-----------1-----------1--|-----------1-----------1----|
G|-----2-----------2--------|-----2-----------2----------| (x2)
D|--------0-----0-----0-----|--------0-----0-----0-------|
A|--3-----------------------|--3-------------------------|
E|--------------------------|----------------------------|

[Verse 2]
(Played 4 times)

E|--------------------------|----------------------------|
B|-----------1-----------1--|-----------1-----------1----|
G|-----2-----------2--------|-----2-----------2----------|
D|--3-----3-----3-----3-----|--3-----3-----3-----3-------|
A|--------------------------|----------------------------|
E|--------------------------|----------------------------|

E|--------------------------|----------------------------|
B|-----------1-----------1--|-----------1-----------1----|
G|-----2-----------2--------|-----2-----------2----------|
D|--------0-----0-----0-----|--------0-----0-----0-------|
A|--3-----------------------|--3-------------------------|
E|--------------------------|----------------------------|

Digging through the vices
I don't know where the inside is
So heres my dirty little secret
And I bet you, you can't keep it
I'm a page torn from your novel
A single flower in your lawn
If I'm not everything you wished for
How come you miss me when I'm gone

[Chorus]
(Played 4 times)

E|--------------------------|----------------------------|
B|-----------1-----------1--|-----------1-----------1----|
G|-----2-----------2--------|-----2-----------2----------|
D|--2-----2-----2-----2-----|--2-----2-----2-----2-------|
A|--------------------------|----------------------------|
E|--------------------------|----------------------------|

E|--------------------------|----------------------------|
B|-----------1-----------1--|-----------1-----------1----|
G|-----2-----------2--------|-----2-----------2----------|
D|--3-----3-----3-----3-----|--3-----3-----3-----3-------|
A|--------------------------|----------------------------|
E|--------------------------|----------------------------|

E|--------------------------|----------------------------|
B|-----------1-----------1--|-----------1-----------1----|
G|-----2-----------2--------|-----2-----------2----------|
D|--------0-----0-----0-----|--------0-----0-----0-------|
A|--3-----------------------|--3-------------------------|
E|--------------------------|----------------------------|

E|-----------------------------|-------------------------------|
B|-----------3--------3--------|-----------3--------3----------|
G|-----0--------0--------0-----|-----0--------0--------0-------|
D|-----------------0--------0--|-----------------0--------0----|
A|-----------------------------|-------------------------------|
E|--3-----3--------------------|--3-----3----------------------|


Do you remember me
Do you remember me because
I wanted you so bad
Do you remember me
Do you remember me because
Everything we have

Was like a hammer to a stone
Wrapped like a fender around a tree
The curiosity in you
And all the emptiness in me
They say a diamond only whispers
To us when we are alone
It's just forever's little trick
To help a hammer find a stone
To help a hammer find a stone

[Outro]

E|--------------------------|--------------------------|-------------------------------------|--0~--|
B|-----------1-----------1--|-----------1-----------1--|-----------------1-------------------|--1~--|
G|-----2-----------2--------|-----2-----------2--------|-------2-------------------2---------|--0~--|
D|--3-----3-----3-----3-----|--3-----3-----3-----3-----|--3---------3---------3---------3----|--2~--|
A|--------------------------|--------------------------|-------------------------------------|--3~--|
E|--------------------------|--------------------------|-------------------------------------|--X---|            
Submit corrections


        Hammer And A Stone Live lessons Hard to play? Try these video lessons and learn fast Hammer And A Stone Live lessons
        
↑ Back to top | Tablatures and chords for acoustic guitar and electric guitar, ukulele, drums are parodies/interpretations of the original songs. You may use it for private study, scholarship, research or language learning purposes only