» » »

Serj Tankian - When Death Arrives Tabs

Artists:  A B C D E F G H I J K L M N O P Q R S T U V W X Y Z # 

When Death Arrives Tabs

(ver. 1) Click to play this song!
Serj Tankian
 Rating:
4/5 (4 votes)

 When Death Arrives  lessons Tabs too difficult? Try these video lessons and learn fast
 
                
Tuning: Standart

e|---6-------6------6------6------8------9---------8-------6-----------------|
B|---------------------------------------------------------------------------|
G|---------------------------------------------------------------------------|
D|---------------------------------------------------------------------------|
A|---------------------------------------------------------------------------|
E|---------------------------------------------------------------------------|



e|---6-----8-----9-----8-----9-----11-----9-----11-----13----11----13--13----|
B|---------------------------------------------------------------------------|
G|---------------------------------------------------------------------------|
D|---------------------------------------------------------------------------|
A|---------------------------------------------------------------------------|
E|---------------------------------------------------------------------------|


e|---11--11--9----9--9(6)--6-----4--4--4--4-----2----2---2---4---2---1-----1-|
B|-------------------------------------------------------------------------1-|
G|-------------------------------------------------------------------------3-|
D|-------------------------------------------------------------------------3-|
A|-------------------------------------------------------------------------1-|
E|-------------------------------------------------------------------------1-|            
Submit corrections


        When Death Arrives  lessons Hard to play? Try these video lessons and learn fast When Death Arrives  lessons
        
↑ Back to top | Tablatures and chords for acoustic guitar and electric guitar, ukulele, drums are parodies/interpretations of the original songs. You may use it for private study, scholarship, research or language learning purposes only