» » »

Serj Tankian - Artsakh Tabs

Artists:  A B C D E F G H I J K L M N O P Q R S T U V W X Y Z # 

Artsakh Tabs

(ver. 1) Click to play this song!
Serj Tankian
 Rating:
4.3/5 (29 votes)

 Artsakh  lessons Tabs too difficult? Try these video lessons and learn fast
 
                [Intro]

    Am          G/B   G        Am          G/B   G        Am          G/B   G        Am           Em      
e|--------0-----------------|--------0-----------------|--------0-----------------|--------0-----------|
B|----------1---------------|----------1---------------|----------1---------------|----------1----0----|
G|------2-----2-----0-----0-|------2-----2-----0-----0-|------2-----2-----0-----0-|------2-----2--0----|
D|----2-----------0-----0---|----2-----------0-----0---|----2-----------0-----0---|----2----------2----|
A|--0-----------2-----------|--0-----------2-----------|--0-----------2-----------|--0------------2----|
E|--------------------3-----|--------------------3-----|--------------------3-----|---------------0----|


[Verse 1]

    Am                                  D             Em
e|--------------------------------------------2-----|--------------------------------------------------|
B|--------1-----------1-----------1---------3---3---|-------0-----------------------0------------------|
G|------2---2-------2---2-------2---2-----2-------2-|-----0---0-------0-----0-----0---0-------0-----0--|
D|----2-------2---2-------2---2-------2-0-----------|---2-------2---0-----0-----2-------2---0-----0----| 
A|--0-----------0-----------0-----------------------|--------------------------------------------------|
E|--------------------------------------------------|-0-----------2-----3-----0-----------2-----3------|

    Am                      D        Em
    Menk' misht aprel yenk' ays hogherum


    Am                                  D             Em
e|--------------------------------------------2-----|--------------------------------------------------|
B|--------1-----------1-----------1---------3---3---|-------0-----------------------0------------------|
G|------2---2-------2---2-------2---2-----2-------2-|-----0---0-------0-----0-----0---0-------0-----0--|
D|----2-------2---2-------2---2-------2-0-----------|---2-------2---0-----0-----2-------2---0-----0----| 
A|--0-----------0-----------0-----------------------|--------------------------------------------------|
E|--------------------------------------------------|-0-----------2-----3-----0-----------2-----3------|

    Am               D         Em  
    K'aghel u hndzel ays dashterum

   
    C                                   Dadd4         Em
e|--------------------------------------------------|--------------------------------------------------|
B|--------1-----------1-----------1-----------3-----|-------0-----------------------0------------------|
G|------0---0-------0---0-------0---0-------0---0---|-----0---0-------0-----0-----0---0-------0-----0--|
D|----2-------2---2-------2---2-------2---4-------4-|---2-------2---0-----0-----2-------2---0-----0----| 
A|--3-----------3-----------3-----------5-----------|--------------------------------------------------|
E|--------------------------------------------------|-0-----------2-----3-----0-----------2-----3------|

    C               Dadd4    Em   
    Serundner bkhel k'vo geterits'

 
    C                                   Dadd4         Em
e|--------------------------------------------------|--------------------------------------------------|
B|--------1-----------1-----------1-----------3-----|-------0-----------------------0------------------|
G|------0---0-------0---0-------0---0-------0---0---|-----0---0-------0-----0-----0---0-------0-----0--|
D|----2-------2---2-------2---2-------2---4-------4-|---2-------2---0-----0-----2-------2---0-----0----| 
A|--3-----------3-----------3-----------5-----------|--------------------------------------------------|
E|--------------------------------------------------|-0-----------2-----3-----0-----------2-----3------|

    C               Dadd4      Em   
    Manukner tsnuel k'vo lerrnerits'


[Verse 2]

    Am                                  D             Em
e|--------------------------------------------2-----|--------------------------------------------------|
B|--------1-----------1-----------1---------3---3---|-------0-----------------------0------------------|
G|------2---2-------2---2-------2---2-----2-------2-|-----0---0-------0-----0-----0---0-------0-----0--|
D|----2-------2---2-------2---2-------2-0-----------|---2-------2---0-----0-----2-------2---0-----0----| 
A|--0-----------0-----------0-----------------------|--------------------------------------------------|
E|--------------------------------------------------|-0-----------2-----3-----0-----------2-----3------|

    Am             D     Em  
    Hanrayin dimak avandakan


    Am                                  D             Em
e|--------------------------------------------2-----|--------------------------------------------------|
B|--------1-----------1-----------1---------3---3---|-------0-----------------------0------------------|
G|------2---2-------2---2-------2---2-----2-------2-|-----0---0-------0-----0-----0---0-------0-----0--|
D|----2-------2---2-------2---2-------2-0-----------|---2-------2---0-----0-----2-------2---0-----0----| 
A|--0-----------0-----------0-----------------------|--------------------------------------------------|
E|--------------------------------------------------|-0-----------2-----3-----0-----------2-----3------|

    Am          D           Em
    Azatagrakan payk'ar kam mah


    C                                   Dadd4         Em
e|--------------------------------------------------|--------------------------------------------------|
B|--------1-----------1-----------1-----------3-----|-------0-----------------------0------------------|
G|------0---0-------0---0-------0---0-------0---0---|-----0---0-------0-----0-----0---0-------0-----0--|
D|----2-------2---2-------2---2-------2---4-------4-|---2-------2---0-----0-----2-------2---0-----0----| 
A|--3-----------3-----------3-----------5-----------|--------------------------------------------------|
E|--------------------------------------------------|-0-----------2-----3-----0-----------2-----3------|

    C               Dadd4     Em
    Dshnamu ach'k'y taratsk'nerid


    C                                                   B7  
e|--0-0-0-0-0-0-0-0-0-0-0-0-0-0-0-0-0-0-0-0-0-0-0-0-0-|-2-2-2-2-2-2-2-2-2-2-2-2-|
B|--1-1-1-1-1-1-1-1-1-1-1-1-1-1-1-1-1-1-1-1-1-1-1-1-1-|-0-0-0-0-0-0-0-0-0-0-0-0-|
G|--0-0-0-0-0-0-0-0-0-0-0-0-0-0-0-0-0-0-0-0-0-0-0-0-0-|-2-2-2-2-2-2-2-2-2-2-2-2-|
D|--2-2-2-2-2-2-2-2-2-2-2-2-2-2-2-2-2-2-2-2-2-2-2-2-2-|-1-1-1-1-1-1-1-1-1-1-1-1-| 
A|--3-3-3-3-3-3-3-3-3-3-3-3-3-3-3-3-3-3-3-3-3-3-3-3-3-|-2-2-2-2-2-2-2-2-2-2-2-2-|
E|----------------------------------------------------|-------------------------|

    C                          B7   
    Mer zhpitnery k'vo tsots'yerin


    C/G                     
e|--0-0-0-0-0-0-0-0-0-0-0-0--|
B|--1-1-1-1-1-1-1-1-1-1-1-1--|
G|--0-0-0-0-0-0-0-0-0-0-0-0--|
D|--2-2-2-2-2-2-2-2-2-2-2-2--| 
A|--3-3-3-3-3-3-3-3-3-3-3-3--|
E|--3-3-3-3-3-3-3-3-3-3-3-3--|

    C/G
    K'vo anhatak kamk'in


[Verse 3]

    F                                                 Em
e|--------------------------------------------------|--------------------------------------------------|
B|--1-1-1-1-1-1-1-1-1-1-1-1-1-1-1-1-1-1-1-1-1-1-1-1-|-0-0-0-0-0-0-0-0-0-0-0-0-0-0-0-0-0-0-0-0-0-0-0-0--|
G|--2-2-2-2-2-2-2-2-2-2-2-2-2-2-2-2-2-2-2-2-2-2-2-2-|-0-0-0-0-0-0-0-0-0-0-0-0-0-0-0-0-0-0-0-0-0-0-0-0--|
D|--3-3-3-3-3-3-3-3-3-3-3-3-3-3-3-3-3-3-3-3-3-3-3-3-|-2-2-2-2-2-2-2-2-2-2-2-2-2-2-2-2-2-2-2-2-2-2-2-2--|
A|--3-3-3-3-3-3-3-3-3-3-3-3-3-3-3-3-3-3-3-3-3-3-3-3-|-2-2-2-2-2-2-2-2-2-2-2-2-2-2-2-2-2-2-2-2-2-2-2-2--|
E|--1-1-1-1-1-1-1-1-1-1-1-1-1-1-1-1-1-1-1-1-1-1-1-1-|-0-0-0-0-0-0-0-0-0-0-0-0-0-0-0-0-0-0-0-0-0-0-0-0--|

    F                               Em
    Menk' piti yergenk' brrunts'k'nerov


    F                                                 Em
e|--------------------------------------------------|--------------------------------------------------|
B|--1-1-1-1-1-1-1-1-1-1-1-1-1-1-1-1-1-1-1-1-1-1-1-1-|-0-0-0-0-0-0-0-0-0-0-0-0-0-0-0-0-0-0-0-0-0-0-0-0--|
G|--2-2-2-2-2-2-2-2-2-2-2-2-2-2-2-2-2-2-2-2-2-2-2-2-|-0-0-0-0-0-0-0-0-0-0-0-0-0-0-0-0-0-0-0-0-0-0-0-0--|
D|--3-3-3-3-3-3-3-3-3-3-3-3-3-3-3-3-3-3-3-3-3-3-3-3-|-2-2-2-2-2-2-2-2-2-2-2-2-2-2-2-2-2-2-2-2-2-2-2-2--|
A|--3-3-3-3-3-3-3-3-3-3-3-3-3-3-3-3-3-3-3-3-3-3-3-3-|-2-2-2-2-2-2-2-2-2-2-2-2-2-2-2-2-2-2-2-2-2-2-2-2--|
E|--1-1-1-1-1-1-1-1-1-1-1-1-1-1-1-1-1-1-1-1-1-1-1-1-|-0-0-0-0-0-0-0-0-0-0-0-0-0-0-0-0-0-0-0-0-0-0-0-0--|

    F                         Em
    Ardarut'yean drosh yeragoynov


    C                                   Dadd4         Em
e|--------------------------------------------------|--------------------------------------------------|
B|--------1-----------1-----------1-----------3-----|-------0-----------------------0------------------|
G|------0---0-------0---0-------0---0-------0---0---|-----0---0-------0-----0-----0---0-------0-----0--|
D|----2-------2---2-------2---2-------2---4-------4-|---2-------2---0-----0-----2-------2---0-----0----| 
A|--3-----------3-----------3-----------5-----------|--------------------------------------------------|
E|--------------------------------------------------|-0-----------2-----3-----0-----------2-----3------|

    C                   Dadd4      Em
    Mardkaynut'yean ser khaghaghut'yean


    C                                   Dadd4         Em
e|--------------------------------------------------|--------------------------------------------------|
B|--------1-----------1-----------1-----------3-----|-------0-----------------------0------------------|
G|------0---0-------0---0-------0---0-------0---0---|-----0---0-------0-----0-----0---0-------0-----0--|
D|----2-------2---2-------2---2-------2---4-------4-|---2-------2---0-----0-----2-------2---0-----0----| 
A|--3-----------3-----------3-----------5-----------|--------------------------------------------------|
E|--------------------------------------------------|-0-----------2-----3-----0-----------2-----3------|

    C              Dadd4       Em
    Manuki demk'in surb orhnut'yeamb


[Outro]

    Am                                  D             Em
e|--------------------------------------------2-----|--------------------------------------------------|
B|--------1-----------1-----------1---------3---3---|-------0-----------------------0------------------|
G|------2---2-------2---2-------2---2-----2-------2-|-----0---0-------0-----0-----0---0-------0-----0--|
D|----2-------2---2-------2---2-------2-0-----------|---2-------2---0-----0-----2-------2---0-----0----| 
A|--0-----------0-----------0-----------------------|--------------------------------------------------|
E|--------------------------------------------------|-0-----------2-----3-----0-----------2-----3------|

    Am                     D        Em
    Menk' piti haght'yenk' mshakuyt'ov


    Am                                  D             Em
e|--------------------------------------------2-----|--------------------------------------------------|
B|--------1-----------1-----------1---------3---3---|-------0-----------------------0------------------|
G|------2---2-------2---2-------2---2-----2-------2-|-----0---0-------0-----0-----0---0-------0-----0--|
D|----2-------2---2-------2---2-------2-0-----------|---2-------2---0-----0-----2-------2---0-----0----| 
A|--0-----------0-----------0-----------------------|--------------------------------------------------|
E|--------------------------------------------------|-0-----------2-----3-----0-----------2-----3------|

    Am                     D        Em
    Menk' piti haght'yenk' mshakuyt'ov


    Am                                  D           Em
e|--------------------------------------------2-----0---|
B|--------1-----------1-----------1---------3---3---0---|
G|------2---2-------2---2-------2---2-----2-------2-0---|
D|----2-------2---2-------2---2-------2-0-----------2---| 
A|--0-----------0-----------0-----------------------2---|
E|--------------------------------------------------0---|

    Am                     D         Em
    Menk' piti haght'yenk' mer Hayut'yeamb            
Submit corrections


        Artsakh  lessons Hard to play? Try these video lessons and learn fast Artsakh  lessons
        
↑ Back to top | Tablatures and chords for acoustic guitar and electric guitar, ukulele, drums are parodies/interpretations of the original songs. You may use it for private study, scholarship, research or language learning purposes only