Home » S » Serena Ryder »

Serena Ryder - Stompa Tabs

Artists:  A B C D E F G H I J K L M N O P Q R S T U V W X Y Z # 

Stompa Tabs

(ver. 1) Click to play this song!
Serena Ryder
[Main Riff]
e|-----------------------------------------------------------------------------|
B|-----------------------------------------------------------------------------|
G|-----------------------------------------------------------------------------|
D|-----------------------------------------------------------------------------|
A|---------------------------0--0--0--0-2-3--3--2--2---------------------------|
E|-0--0--0--0-2-3--3--3--3-----------------------------------------------------|

[Solo]
e|---------------------------------------------------------------------------|
B|-----------------8-10--10--10/12---8---------------------------------------|
G|-----------9---9--------------------9--------------------------------------|
D|-2/7-7-8-9-----------------------------------------------------------------|
A|---------------------------------------------------------------------------|
E|---------------------------------------------------------------------------|

[Bridge]
e|---------------------------------------------------------------------------|
B|---------------------------------------------------------------------------|
G|---------------------------------------------------------------------------|
D|---------------------------2-2-2-2-------------------------2-2-2-2---------|
A|-0-0-0-0-0-0-0-2-2-3-3-3-3---------0-0-0-0-0-0-2-2-3-3-3-3-----------------|
E|---------------------------------------------------------------------------|

e|-----------------------------------------------------------------------------|
B|-----------------------------------------------------------------------------|
G|--0--------------------------------------------------------------------------|
D|-------3----1----------------------------------------------------------------|
A|----------------0-0-0-0-0-0-0-0-2b-------------------------------------------|
E|-----------------------------------------------------------------------------|

[Main Riff]
e|-----------------------------------------------------------------------------|
B|-----------------------------------------------------------------------------|
G|-----------------------------------------------------------------------------|
D|-----------------------------------------------------------------------------|
A|---------------------------0--0--0--0-2-3--3--2--2---------------------------|
E|-0--0--0--0-2-3--3--3--3-----------------------------------------------------|            
Submit corrections

↑ Back to top | Tablatures and chords for acoustic guitar and electric guitar, ukulele, drums are parodies/interpretations of the original songs. You may use it for private study, scholarship, research or language learning purposes only