» » »

Sentenced - Konevitsan Kirkonkellot Bass

Artists:  A B C D E F G H I J K L M N O P Q R S T U V W X Y Z # 

Konevitsan Kirkonkellot Bass

(ver. 1) Click to play this song!
Sentenced
 Rating:
4.2/5 (5 votes)
                This is just the intro with the birds

Drop D Tuning

|--------||--------||---------||-----|
|--------||--------||---------||-----|
|------5-||--4---1-||--2---5--||--4--|
|--2-----||--------||---------||-----|

|--------||--------||---------||-----|
|--------||--------||---------||-----|
|------5-||--4---1-||--2---5--||--4--|
|--2-----||--------||---------||-----|

|--------||--------||---------||-----|
|--------||--------||---------||-----|
|------5-||--4---1-||--2---5--||--4--|
|--2-----||--------||---------||-----|

go right into "Cross my Heart and Hope To die"
            
Submit corrections

↑ Back to top | Tablatures and chords for acoustic guitar and electric guitar, ukulele, drums are parodies/interpretations of the original songs. You may use it for private study, scholarship, research or language learning purposes only