» » »

Semisonic - She's Got My Number Tabs

Artists:  A B C D E F G H I J K L M N O P Q R S T U V W X Y Z # 

She's Got My Number Tabs

(ver. 1) Click to play this song!
Semisonic
 Rating:
4/5 (4 votes)

 She's Got My Number lessons Tabs too difficult? Try these video lessons and learn fast
 
                |-----------------------------|------------------------------
|-----------------------------|------------------------------
|--6-7-6----------------------|--99-10-9----7----------------
|---------9--7-------7--9-10--|-----------------10-9-7--5-7--
|----------------8------------|------------------------------
|-----------------------------|------------------------------

repeat couple of times

(bass line)
|---------------------------------
|---------------------------------
|--------------3---------5--------
|--5-----1-----------3------------
            
Submit corrections


        She's Got My Number lessons Hard to play? Try these video lessons and learn fast She's Got My Number lessons
        
↑ Back to top | Tablatures and chords for acoustic guitar and electric guitar, ukulele, drums are parodies/interpretations of the original songs. You may use it for private study, scholarship, research or language learning purposes only