Home » S » Selah Sue »

Selah Sue - This World Tabs

Artists:  A B C D E F G H I J K L M N O P Q R S T U V W X Y Z # 

This World Tabs

(ver. 1) Click to play this song!
Selah Sue

INTRO

BASSE seule x2


+ guitare
------------------|
--3---2/3---3--3--|
----------5-------|
------------------|
--5------------5--|
------------------|


COUPLET x2

-----------------------------|
--------3--4-----------6-----|
-----0-------------5---------|
----------------3------------|
-5---------------------------|
-----------------------------|


------------------------------|
---------3--4----2/3------3---|
------0----------------5------|
------------------------------|
---5--------------------------|
------------------------------|


REFRAIN
                Mib    MI?      Mib
-------------x---x----x---x----x---x-----------|
---3--3------8---8----8---8----8---8-----------|
-------------8---8----9---9----8---8-----------| X4
-------------8---8----8---8----8---8-----------|
---5--5------6---6----6---6----6---6-----------|
-------------x---x----x---x----x---x-----------|


PONT

FA X5                   FA x5               Do x5       G
--1---------------     --1------------------8-----      3-|
--1---------------     --1------------------8-----    3---|
--2--------------- X2  --2------------------9-----    4---|
--3----5--3-------     --3------5--7--8--9--10----    5---|
--3----------5--1-     --3------------------10----    5---|
--1---------------     --1------------------8-----    3---|

                                                        ou  555588

Basse x2 + guitare solo

COUPLET

REFRAIN

Pont

basse + solo

PONT




Fin  555588
            
Submit corrections

↑ Back to top | Tablatures and chords for acoustic guitar and electric guitar, ukulele, drums are parodies/interpretations of the original songs. You may use it for private study, scholarship, research or language learning purposes only