Home » S » Seeed »

Seeed - Fire In The Morning Tabs

Artists:  A B C D E F G H I J K L M N O P Q R S T U V W X Y Z # 

Fire In The Morning Tabs

(ver. 1) Click to play this song!
Seeed
Seeed - Fire in the morning

Intro(with bass)
e------------------------------------------------------------------------|
b------------------------------------------------------------------------|
G------------------------------------------------------------------------|
D------------------------------------------------------------------------|
A------------------------------------------------------------------------|
E--11--9---11-----------11-11-11-11-9-11---------------------------------|


Bridge
      d#              cm
e-6-6-6-6-6-6-6-6--3-3-3-3-3-3-3-3-----------------------------------------|
b-8-8-8-8-8-8-8-8--4-4-4-4-4-4-4-4-----------------------------------------|
G-8-8-8-8-8-8-8-8--5-5-5-5-5-5-5-5-----------------------------------------|
D-8-8-8-8-8-8-8-8--5-5-5-5-5-5-5-5-----------------------------------------|
A-6-6-6-6-6-6-6-6--3-3-3-3-3-3-3-3-----------------------------------------|
E--------------------------------------------------------------------------|

Verse
      d#              g#
e-6-6-6-6-6-6-6-6--4-4-4-4-4-4-4-4-----------------------------------------|
b-8-8-8-8-8-8-8-8--4-4-4-4-4-4-4-4-----------------------------------------|
G-8-8-8-8-8-8-8-8--5-5-5-5-5-5-5-5-----------------------------------------|
D-8-8-8-8-8-8-8-8--6-6-6-6-6-6-6-6-----------------------------------------|
A-6-6-6-6-6-6-6-6--6-6-6-6-6-6-6-6-----------------------------------------|
E------------------4-4-4-4-4-4-4-4-----------------------------------------|


Refrain
      d#
e-6-6-6-6-6-6-6-6--|
b-8-8-8-8-8-8-8-8--|
G-8-8-8-8-8-8-8-8--|
D-8-8-8-8-8-8-8-8--|
A-6-6-6-6-6-6-6-6--|
E------------------|


Bridge
      d#              cm
e-6-6-6-6-6-6-6-6--3-3-3-3-3-3-3-3-----------------------------------------|
b-8-8-8-8-8-8-8-8--4-4-4-4-4-4-4-4-----------------------------------------|
G-8-8-8-8-8-8-8-8--5-5-5-5-5-5-5-5-----------------------------------------|
D-8-8-8-8-8-8-8-8--5-5-5-5-5-5-5-5-----------------------------------------|
A-6-6-6-6-6-6-6-6--3-3-3-3-3-3-3-3-----------------------------------------|
E--------------------------------------------------------------------------|


Verse
      d#              g#
e-6-6-6-6-6-6-6-6--4-4-4-4-4-4-4-4-----------------------------------------|
b-8-8-8-8-8-8-8-8--4-4-4-4-4-4-4-4-----------------------------------------|
G-8-8-8-8-8-8-8-8--5-5-5-5-5-5-5-5-----------------------------------------|
D-8-8-8-8-8-8-8-8--6-6-6-6-6-6-6-6-----------------------------------------|
A-6-6-6-6-6-6-6-6--6-6-6-6-6-6-6-6-----------------------------------------|
E------------------4-4-4-4-4-4-4-4-----------------------------------------|


Refrain
      d#
e-6-6-6-6-6-6-6-6--|
b-8-8-8-8-8-8-8-8--|
G-8-8-8-8-8-8-8-8--|
D-8-8-8-8-8-8-8-8--|
A-6-6-6-6-6-6-6-6--|
E------------------|

That's it...good old german reggae...Simon
            
Submit corrections

↑ Back to top | Tablatures and chords for acoustic guitar and electric guitar, ukulele, drums are parodies/interpretations of the original songs. You may use it for private study, scholarship, research or language learning purposes only