Home » S » Search »

Search - Nur Nilam Sari Tabs

Artists:  A B C D E F G H I J K L M N O P Q R S T U V W X Y Z # 

Nur Nilam Sari Tabs

(ver. 1) Click to play this song!
Search
Tuning:Standard

(Intro)

           Bb                        Am                          Bb
e|------------------------------------------11-12----------------------------|
B|---------9b------------------------9b-----------13------11brb-----/11------|
G|------10--------10~----------10--------------------10-9--------------------|
D|--/12--------------------/12----12-----------------------------------------|
A|---------------------------------------------------------------------------|
E|---------------------------------------------------------------------------|

                       C                            Bb
e|---------------------------8--------8\6/8----------------------------------|
B|--10h11p10-8----8-10-8-----------------------------------------------------|
G|-------------10-----------------------------------10~------12-10-12b-------|
D|------------------------10-------10\8/10----10/12--------------------------|
A|---------------------------------------------------------------------------|
E|---------------------------------------------------------------------------|

                       Dm                            Eb   Eb D C Eb
e|-----10--------------13b---13r-----10-13-10~-------------------------------|
B|--13-----------------------------------------------------------------------|
G|--------12bp10-12-10--------------------------------8----8\7\5-8-----------|
D|---------------------------------------------------------------------------|
A|----------------------------------------------------6----6\5\3-6-----------|
E|---------------------------------------------------------------------------|

   Eb D C F     F Eb D F      D F D
e|---------------------------------------------------------------------------|
B|---------------------------------------------------------------------------|
G|--8\7\5-10----10\8\7-10-----7\10\14~~--------------------------------------|
D|---------------------------------------------------------------------------|
A|--6\5\3-8------8\6\5-8------5\8\12~~---------------------------------------|
E|---------------------------------------------------------------------------|

Pinjam sinar...


(Solo)

-----------------------------------Tapping---------------------------------

    F
e|---------------------------------------------------------------------------|
B|--6p8-(11)-6p8-(10)-6p8-(11)-6p8-(10)-6p8-(11)-6p8-(10)-6p8-(11)-6p8-(10)--|
G|---------------------------------------------------------------------------|
D|---------------------------------------------------------------------------|
A|---------------------------------------------------------------------------|
E|---------------------------------------------------------------------------|
 
---------------------Tapping----------------------------

                  C                                            F
e|---------------------------------------------------------------------------|
B|--6p8-(11)-6p8-(13)-6p8-(15)-6p8-(17)-6p8-(15)-6p8-(18)------18b----18b----|
G|----------------------------------------------------------17-----17--------|
D|---------------------------------------------------------------------------|
A|---------------------------------------------------------------------------|
E|---------------------------------------------------------------------------|


               C                     F                      C                   
e|---------------------------------------------------------------------------|
B|-----18b----18b------------------18br-18~----------------------------------|
G|--17-----17---------17br---15-17----------------------------------12---9---|
D|-----------------------------------------------3~-----5-7/10~--------------|
A|---------------------------------------------------------------------------|
E|---------------------------------------------------------------------------|


    Bb                C                                    Dm
e|---------------------------------------------------------------------------|
B|------------------------13-13----------------------------------------------|
G|--10~-----14----10--12---------------15-15\14-14\10-10\7-7~---12brb----10--|
D|---------------------------------------------------------------------------|
A|---------------------------------------------------------------------------|
E|---------------------------------------------------------------------------|


    Am             Bb                   C
e|--------------------------------------13-12h13h15p13p12--------------------|
B|--------11brb----13br-13-11-10--------------------------13-11h13h15p13p11--|
G|--9------------------------------------------------------------------------|
D|---------------------------------------------------------------------------|
A|---------------------------------------------------------------------------|
E|---------------------------------------------------------------------------|


                                                       Gm
e|---------------------------------------------------------------------------|
B|---------------------------------------------------------------------------|
G|--12-10h12h14p12p10--------------------------------------------------------|
D|--------------------12-10h12h14p12p10--5h7h8p7p5---------------------------|
A|-------------------------------------------------8-8/10~~------------------|
E|---------------------------------------------------------------------------            
Submit corrections

↑ Back to top | Tablatures and chords for acoustic guitar and electric guitar, ukulele, drums are parodies/interpretations of the original songs. You may use it for private study, scholarship, research or language learning purposes only