» » »

Seafret - Give Me Sometthing Tabs

Artists:  A B C D E F G H I J K L M N O P Q R S T U V W X Y Z # 

Give Me Sometthing Tabs

(ver. 1) Click to play this song!
Seafret
 Rating:
4.4/5 (5 votes)

 Give Me Sometthing lessons Tabs too difficult? Try these video lessons and learn fast
 
                
[Intro]

e|---------------------------|----------------------------|
B|----8-----7~---------------|----8-----7-----12------5~--|
G|-------0-------------------|-------0----0--------0------|
D|---------------------------|----------------------------|
A|--7--7--5~-----------------|--7--7--5--5--10--10--3~----|
E|---------------------------|----------------------------|(x1)

e|---------------------------|----------------------------|
B|----8-----7~---------------|----8-----7----3-----5~-----|
G|-------0-------------------|-------0-----0-----0--------|
D|---------------------------|----------------------------|
A|--7--7--5~-----------------|--7--7--5--5--2--2--3~------|
E|---------------------------|----------------------------|(x1)

[Verse]

e|----------------------------|----------------------------|
B|----8-----7----3-----5~-----|----8-----7-----12------5~--|
G|-------0-----0-----0--------|-------0----0--------0------|
D|----------------------------|----------------------------|
A|--7--7--5--5--2--2--3~------|--7--7--5--5--10--10--3~----|
E|----------------------------|----------------------------|(x10)            
Submit corrections


        Give Me Sometthing lessons Hard to play? Try these video lessons and learn fast Give Me Sometthing lessons
        
↑ Back to top | Tablatures and chords for acoustic guitar and electric guitar, ukulele, drums are parodies/interpretations of the original songs. You may use it for private study, scholarship, research or language learning purposes only