» » »

Seafret - Atlantis Tabs

Artists:  A B C D E F G H I J K L M N O P Q R S T U V W X Y Z # 

Atlantis Tabs

(ver. 1) Click to play this song!
Seafret
 Rating:
4.7/5 (21 vote)

 Atlantis  lessons Tabs too difficult? Try these video lessons and learn fast
 
                    C                                   Em
e|---------------------------------------------------------------------------|
B|--------1--------1--------1--------1---------------------------------------|
G|----0--------0--------0--------0------------0--------0--------0--------0---|
D|----------------------------------------2--------2--------2--------2-------|
A|--3---3----3---3----3---3----3---3----2---2----2---2----2---2----2---2-----|
E|---------------------------------------------------------------------------|
                                                                                  
    C                                      Em                 D
e|---------------------------------------------------------------------------|
B|--------1--------1--------1--------1---------------------------3-------3---|
G|----0--------0--------0--------0------------0--------0-----2-------2-------|
D|----------------------------------------2--------2-------0---0---0---0-----|
A|--3---3----3---3----3---3----3---3----2---2----2---2-----------------------|
E|---------------------------------------------------------------------------|   (Play the whole thing twice)

The birds that left the trees, the light bores onto me,
I can feel you lying there all on your own
We got here the hard way, all those words that we exchange
Is it any wonder things get dark’



    C                                   Em
e|---------------------------------------------------------------------------|
B|--------1--------1--------1--------1---------------------------------------|
G|----0--------0--------0--------0------------0--------0--------0--------0---|
D|----------------------------------------2--------2--------2--------2-------|
A|--3---3----3---3----3---3----3---3----2---2----2---2----2---2----2---2-----|
E|---------------------------------------------------------------------------|
 
    G                                   D
e|---------------------------------------------------------------------------|
B|--------0--------0--------0--------0--------3--------3--------3--------3---|
G|----0--------0--------0--------0--------2--------2--------2--------2-------|
D|--------------------------------------0---0----0---0----0---0----0---0-----|
A|---------------------------------------------------------------------------|
E|--3---3----3---3----3---3----3---3-----------------------------------------|   (Play the whole thing twice)


Cause in my heart and in my head,
I’ll never take back the things I said
So high above, I feel it coming down
She said in my heart and in my head
Tell me why this has to end
oh no, oh no



    C                                   Em
e|---------------------------------------------------------------------------|
B|--------1--------1--------1--------1---------------------------------------|
G|----0--------0--------0--------0------------0--------0--------0--------0---|
D|----------------------------------------2--------2--------2--------2-------|
A|--3---3----3---3----3---3----3---3----2---2----2---2----2---2----2---2-----|
E|---------------------------------------------------------------------------|
 
    D
e|---------------------------------------------------------------------------|
B|--------3--------3--------3--------3--------3--------3--------3--------3---|
G|----2--------2--------2--------2--------2--------2--------2--------2-------|
D|--0---0----0---0----0---0----0---0----0---0----0---0----0---0----0---0-----|
A|---------------------------------------------------------------------------|
E|---------------------------------------------------------------------------|   (Play the whole thing twice)

I can’t save us, my Atlantis, we fall
We built this town on shaky ground
I can’t save us my Atlantis, oh no
We built it up to pull it down



    C                                   Em
e|---------------------------------------------------------------------------|
B|--------1--------1--------1--------1---------------------------------------|
G|----0--------0--------0--------0------------0--------0--------0--------0---|
D|----------------------------------------2--------2--------2--------2-------|
A|--3---3----3---3----3---3----3---3----2---2----2---2----2---2----2---2-----|
E|---------------------------------------------------------------------------|
                                                                                  
    C                                      Em                 D
e|---------------------------------------------------------------------------|
B|--------1--------1--------1--------1---------------------------3-------3---|
G|----0--------0--------0--------0------------0--------0-----2-------2-------|
D|----------------------------------------2--------2-------0---0---0---0-----|
A|--3---3----3---3----3---3----3---3----2---2----2---2-----------------------|
E|---------------------------------------------------------------------------|   (Play the whole thing twice)

Now all the birds have fled, the hurt just leaves me scared
Losing everything I've ever known
It’s all become too much, maybe I’m not built for love
If I knew that I could reach you, I would go 


    C                                   Em
e|---------------------------------------------------------------------------|
B|--------1--------1--------1--------1---------------------------------------|
G|----0--------0--------0--------0------------0--------0--------0--------0---|
D|----------------------------------------2--------2--------2--------2-------|
A|--3---3----3---3----3---3----3---3----2---2----2---2----2---2----2---2-----|
E|---------------------------------------------------------------------------|
 
    G                                   D
e|---------------------------------------------------------------------------|
B|--------0--------0--------0--------0--------3--------3--------3--------3---|
G|----0--------0--------0--------0--------2--------2--------2--------2-------|
D|--------------------------------------0---0----0---0----0---0----0---0-----|
A|---------------------------------------------------------------------------|
E|--3---3----3---3----3---3----3---3-----------------------------------------|   (Play the whole thing twice)

It’s in my heart and in my head 
You can’t take back the things you said 
So high above, I feel it coming down
She said in my heart and in my head
Tell me why this has to end
Oh no, oh no


    C                                   Em
e|---------------------------------------------------------------------------|
B|--------1--------1--------1--------1---------------------------------------|
G|----0--------0--------0--------0------------0--------0--------0--------0---|
D|----------------------------------------2--------2--------2--------2-------|
A|--3---3----3---3----3---3----3---3----2---2----2---2----2---2----2---2-----|
E|---------------------------------------------------------------------------|
 
    D
e|---------------------------------------------------------------------------|
B|--------3--------3--------3--------3--------3--------3--------3--------3---|
G|----2--------2--------2--------2--------2--------2--------2--------2-------|
D|--0---0----0---0----0---0----0---0----0---0----0---0----0---0----0---0-----|
A|---------------------------------------------------------------------------|
E|---------------------------------------------------------------------------|   (Play the whole thing twice)

I can’t save us, my Atlantis, we fall
We built this town on shaky ground
I can’t save us my Atlantis, oh no
We built it up to pull it down


    C                                   Em
e|---------------------------------------------------------------------------|
B|--------1--------1--------1--------1---------------------------------------|
G|----0--------0--------0--------0------------0--------0--------0--------0---|
D|----------------------------------------2--------2--------2--------2-------|
A|--3---3----3---3----3---3----3---3----2---2----2---2----2---2----2---2-----|
E|---------------------------------------------------------------------------|
                                                                                  
    C                                      Em                 D
e|---------------------------------------------------------------------------|
B|--------1--------1--------1--------1---------------------------3-------3---|
G|----0--------0--------0--------0------------0--------0-----2-------2-------|
D|----------------------------------------2--------2-------0---0---0---0-----|
A|--3---3----3---3----3---3----3---3----2---2----2---2-----------------------|
E|---------------------------------------------------------------------------|   (Play the whole thing twice)

And we build it up, and we build it up
And we build it up to pull it down
And we build it up, and we build it up
And we build it up to pull it down

    C                                   Em
e|---------------------------------------------------------------------------|
B|--------1--------1--------1--------1---------------------------------------|
G|----0--------0--------0--------0------------0--------0--------0--------0---|
D|----------------------------------------2--------2--------2--------2-------|
A|--3---3----3---3----3---3----3---3----2---2----2---2----2---2----2---2-----|
E|---------------------------------------------------------------------------|
 
    D
e|---------------------------------------------------------------------------|
B|--------3--------3--------3--------3--------3--------3--------3--------3---|
G|----2--------2--------2--------2--------2--------2--------2--------2-------|
D|--0---0----0---0----0---0----0---0----0---0----0---0----0---0----0---0-----|
A|---------------------------------------------------------------------------|
E|---------------------------------------------------------------------------|   (Play the whole thing twice)

I can’t save us, my Atlantis, we fall
We built this town on shaky ground
I can’t save us my Atlantis, oh no
We built it up to pull it down

After the first verse, you can continue to play the tabs or play the chords -I put the chords on top of
the tabs so you can decide. Hopefully this was helpful -it was done by ear so I apologise in advance
for any mistakes.
            
Submit corrections


        Atlantis  lessons Hard to play? Try these video lessons and learn fast Atlantis  lessons
        
↑ Back to top | Tablatures and chords for acoustic guitar and electric guitar, ukulele, drums are parodies/interpretations of the original songs. You may use it for private study, scholarship, research or language learning purposes only