Home » S » Scorpions »

Scorpions - I Wanted To Cry But The Tears Wouldnt Come Tabs

Artists:  A B C D E F G H I J K L M N O P Q R S T U V W X Y Z # 

I Wanted To Cry But The Tears Wouldnt Come Tabs

(ver. 1) Click to play this song!
Scorpions
 Rating:
4/5 (4 votes)
                Hi!
Here comes the solo for this beautiful song.
The guitar is tuned down 1/2 step. Also,
this is my first tab _ever_ so please, mail me some comments if you find some mistakes.

E----------------------------------------------------------------------------------------------|
B----------------5-5/7------------------5-4-------------------------------------------5--------|
G----------2-4/6-------4h6~----6~-6-6-4------4---(4b)6r4p2---4b6r4p2--------2~--4/6------------|
D------2-4-------------------------------------------------4------------2h4--------------------|
A----------------------------------------------------------------------------------------------|
E----------------------------------------------------------------------------------------------|

E-----------------------------------------------------9~---9p7----(7b)9r7-7-5---7-5~-----------|
B-7------------------------------5------/7-9-10-----7---------7---------------7----------------|
G--6~------4-2---(4b)6r4p2----/6---------------------------------------------------------------|
D--------------4-------------------------------------------------------------------------------|
A----------------------------------------------------------------------------------------------|
E----------------------------------------------------------------------------------------------|

There are actually two (or even three) guitars playing so maybe some notes are from 
guitar.

Legend:

5/7 - slide up (from 5 to 7)
/7 - slide up to 7
(4b)6r4 - pre-bend, then release
4p2 - pull-off
2h4 - hammer-on
~ - vibrato, hold the note

Timing: well, just listen to the song...
            
Submit corrections

↑ Back to top | Tablatures and chords for acoustic guitar and electric guitar, ukulele, drums are parodies/interpretations of the original songs. You may use it for private study, scholarship, research or language learning purposes only