Home » S » Scorpions »

Scorpions - Future Never Dies Tabs

Artists:  A B C D E F G H I J K L M N O P Q R S T U V W X Y Z # 

Future Never Dies Tabs

(ver. 1) Click to play this song!
Scorpions
 Rating:
4/5 (4 votes)
                
intro
I still can get the piano riff for intro

verse
this riff playeb by piano, somehow I can trace the chords..
----------------------------------------------------------|
--5-----5-----4-----4-----2-----2-----5----5--------------|
--5-----5-----5-----5-----5-----5-----5----5--------------|
----------------------------------------------------------|
-----3-----3-----3-----3-----3-----3-----3----------------|
----------------------------------------------------------|

                  prechorus
----------------|-------------------------------------------|
----------------|-------------------------------------------|
----------------|-------------------------------------------|
----------3--5--|-------------------3--5--6-----------------|
--3-5--6--------|----------3--5--6--------------------------|
----------------|--4---6------------------------------------|

chorus (let all the chord ring)
-------------------|--------------|------------------------------|
-------------------|--------------|------------------------------|
-8------4------6---|-------7----9-|------------------------------|
-8------4------6---|--4----7----9-|------------------------------|
-6------2------4---|--4----5----7-|--6----4----------------------|
-------------------|--2-----------|-------------4----------------|
  x2

interlude before solo
-------------------------------------------------------------------|
-------------------------------------------------------------------|
--8-6-8----6-----8-6-8---6---4-------------------------------------|
--8-6-8----6-----8-6-8---6---4----6-4-6----4----6-4-6----1----2----|
--6-4-6----4-----6-4-6---4---2----6-4-6----4----6-4-6----3----2----|
----------------------------------4-2-4----2----4-2-4----3----0----|

solo
----------------------------------------------------------|
----------------------------------------------------------|
----------------------repeat..... i don't know how much---|
--6------2------4-----------------------------------------|
--6------2------4-----------------------------------------|
--4------0------2-----------------------------------------|

check for any error in this tab... if there is, mail me and I'll fix it.. TTTTTTTTTTQ!!!!!!!!
            
Submit corrections

↑ Back to top | Tablatures and chords for acoustic guitar and electric guitar, ukulele, drums are parodies/interpretations of the original songs. You may use it for private study, scholarship, research or language learning purposes only